ISO-10303-21;
HEADER;
FILE_DESCRIPTION(('STEP AP203'),'1');
FILE_NAME('equerre_vpf-13_63.stp','2018-10-24T20:03:02',('TraceParts'),('TraceParts S.A.'),'Spatial InterOp 3D',' ',' ');
FILE_SCHEMA(('CONFIG_CONTROL_DESIGN'));
ENDSEC;
DATA;
#1=DESIGN_CONTEXT('',#27,'design');
#2=APPLICATION_PROTOCOL_DEFINITION('INTERNATIONAL STANDARD','config_control_design',1994,#27);
#3=PRODUCT_CATEGORY_RELATIONSHIP('NONE','NONE',#28,#29);
#4=DATE_AND_TIME(#30,#31);
#5=DATE_TIME_ROLE('creation_date');
#6=DATE_TIME_ROLE('classification_date');
#7=PERSON_AND_ORGANIZATION_ROLE('creator');
#8=PERSON_AND_ORGANIZATION_ROLE('design_supplier');
#9=PERSON_AND_ORGANIZATION_ROLE('classification_officer');
#10=PERSON_AND_ORGANIZATION_ROLE('design_owner');
#11=APPROVAL_PERSON_ORGANIZATION(#32,#33,#34);
#12=APPROVAL_DATE_TIME(#4,#33);
#13=CC_DESIGN_APPROVAL(#33,(#35,#36,#37));
#14=CC_DESIGN_DATE_AND_TIME_ASSIGNMENT(#4,#5,(#37));
#15=CC_DESIGN_DATE_AND_TIME_ASSIGNMENT(#4,#6,(#35));
#16=CC_DESIGN_PERSON_AND_ORGANIZATION_ASSIGNMENT(#32,#10,(#38));
#17=CC_DESIGN_PERSON_AND_ORGANIZATION_ASSIGNMENT(#32,#7,(#37));
#18=CC_DESIGN_PERSON_AND_ORGANIZATION_ASSIGNMENT(#32,#7,(#36));
#19=CC_DESIGN_PERSON_AND_ORGANIZATION_ASSIGNMENT(#32,#8,(#36));
#20=CC_DESIGN_SECURITY_CLASSIFICATION(#35,(#36));
#21=CC_DESIGN_PERSON_AND_ORGANIZATION_ASSIGNMENT(#32,#9,(#35));
#22=SHAPE_DEFINITION_REPRESENTATION(#39,#40);
#23= (GEOMETRIC_REPRESENTATION_CONTEXT(3)GLOBAL_UNCERTAINTY_ASSIGNED_CONTEXT((#43))GLOBAL_UNIT_ASSIGNED_CONTEXT((#45,#46,#47))REPRESENTATION_CONTEXT('NONE','WORKSPACE'));
#27=APPLICATION_CONTEXT('CONFIGURATION CONTROLLED 3D DESIGNS OF MECHANICAL PARTS AND ASSEMBLIES');
#28=PRODUCT_CATEGORY('part','NONE');
#29=PRODUCT_RELATED_PRODUCT_CATEGORY('detail',' ',(#38));
#30=CALENDAR_DATE(2018,24,9);
#31=LOCAL_TIME(22,3,2.0,#49);
#32=PERSON_AND_ORGANIZATION(#50,#51);
#33=APPROVAL(#52,'SOLID MODEL');
#34=APPROVAL_ROLE('APPROVED');
#35=SECURITY_CLASSIFICATION('','',#53);
#36=PRODUCT_DEFINITION_FORMATION_WITH_SPECIFIED_SOURCE(' ','NONE',#38,.NOT_KNOWN.);
#37=PRODUCT_DEFINITION('','NONE',#36,#1);
#38=PRODUCT('1','','PART--DESC',(#54));
#39=PRODUCT_DEFINITION_SHAPE('NONE','NONE',#37);
#40=ADVANCED_BREP_SHAPE_REPRESENTATION('1',(#55,#56),#23);
#43=UNCERTAINTY_MEASURE_WITH_UNIT(LENGTH_MEASURE(1.0E-06),#45,'','');
#45= (CONVERSION_BASED_UNIT('MILLIMETRE',#59)LENGTH_UNIT()NAMED_UNIT(#62));
#46= (NAMED_UNIT(#64)PLANE_ANGLE_UNIT()SI_UNIT($,.RADIAN.));
#47= (NAMED_UNIT(#64)SOLID_ANGLE_UNIT()SI_UNIT($,.STERADIAN.));
#49=COORDINATED_UNIVERSAL_TIME_OFFSET(1,0,.AHEAD.);
#50=PERSON('','UNSPECIFIED',$,$,$,$);
#51=ORGANIZATION('UNSPECIFIED','UNSPECIFIED','UNSPECIFIED');
#52=APPROVAL_STATUS('approved');
#53=SECURITY_CLASSIFICATION_LEVEL('unclassified');
#54=MECHANICAL_CONTEXT('',#27,'mechanical');
#55=MANIFOLD_SOLID_BREP('1',#70);
#56=AXIS2_PLACEMENT_3D('',#71,#72,#73);
#59=LENGTH_MEASURE_WITH_UNIT(LENGTH_MEASURE(1.0),#74);
#62=DIMENSIONAL_EXPONENTS(1.0,0.0,0.0,0.0,0.0,0.0,0.0);
#64=DIMENSIONAL_EXPONENTS(0.0,0.0,0.0,0.0,0.0,0.0,0.0);
#70=CLOSED_SHELL('',(#75,#76,#77,#78,#79,#80,#81,#82,#83,#84,#85,#86,#87,#88,#89,#90,#91,#92,#93,#94));
#71=CARTESIAN_POINT('',(0.0,0.0,0.0));
#72=DIRECTION('',(0.0,0.0,1.0));
#73=DIRECTION('',(1.0,0.0,0.0));
#74= (NAMED_UNIT(#62)LENGTH_UNIT()SI_UNIT(.MILLI.,.METRE.));
#75=ADVANCED_FACE('',(#96),#97,.F.);
#76=ADVANCED_FACE('',(#98),#99,.F.);
#77=ADVANCED_FACE('',(#100),#101,.F.);
#78=ADVANCED_FACE('',(#102),#103,.F.);
#79=ADVANCED_FACE('',(#104),#105,.F.);
#80=ADVANCED_FACE('',(#106),#107,.F.);
#81=ADVANCED_FACE('',(#108),#109,.F.);
#82=ADVANCED_FACE('',(#110),#111,.F.);
#83=ADVANCED_FACE('',(#112),#113,.T.);
#84=ADVANCED_FACE('',(#114),#115,.T.);
#85=ADVANCED_FACE('',(#116),#117,.T.);
#86=ADVANCED_FACE('',(#118,#119,#120),#121,.T.);
#87=ADVANCED_FACE('',(#122),#123,.F.);
#88=ADVANCED_FACE('',(#124,#125,#126),#127,.T.);
#89=ADVANCED_FACE('',(#128),#129,.T.);
#90=ADVANCED_FACE('',(#130,#131,#132),#133,.T.);
#91=ADVANCED_FACE('',(#134),#135,.F.);
#92=ADVANCED_FACE('',(#136,#137,#138),#139,.T.);
#93=ADVANCED_FACE('',(#140),#141,.T.);
#94=ADVANCED_FACE('',(#142),#143,.T.);
#96=FACE_OUTER_BOUND('',#144,.T.);
#97=CYLINDRICAL_SURFACE('',#145,5.5);
#98=FACE_OUTER_BOUND('',#146,.T.);
#99=CYLINDRICAL_SURFACE('',#147,5.5);
#100=FACE_OUTER_BOUND('',#148,.T.);
#101=CYLINDRICAL_SURFACE('',#149,5.5);
#102=FACE_OUTER_BOUND('',#150,.T.);
#103=CYLINDRICAL_SURFACE('',#151,5.5);
#104=FACE_OUTER_BOUND('',#152,.T.);
#105=CYLINDRICAL_SURFACE('',#153,5.5);
#106=FACE_OUTER_BOUND('',#154,.T.);
#107=CYLINDRICAL_SURFACE('',#155,5.5);
#108=FACE_OUTER_BOUND('',#156,.T.);
#109=CYLINDRICAL_SURFACE('',#157,5.5);
#110=FACE_OUTER_BOUND('',#158,.T.);
#111=CYLINDRICAL_SURFACE('',#159,5.5);
#112=FACE_OUTER_BOUND('',#160,.T.);
#113=CYLINDRICAL_SURFACE('',#161,11.0);
#114=FACE_OUTER_BOUND('',#162,.T.);
#115=CYLINDRICAL_SURFACE('',#163,11.0);
#116=FACE_OUTER_BOUND('',#164,.T.);
#117=PLANE('',#165);
#118=FACE_BOUND('',#166,.T.);
#119=FACE_BOUND('',#167,.T.);
#120=FACE_OUTER_BOUND('',#168,.T.);
#121=PLANE('',#169);
#122=FACE_OUTER_BOUND('',#170,.T.);
#123=PLANE('',#171);
#124=FACE_BOUND('',#172,.T.);
#125=FACE_BOUND('',#173,.T.);
#126=FACE_OUTER_BOUND('',#174,.T.);
#127=PLANE('',#175);
#128=FACE_OUTER_BOUND('',#176,.T.);
#129=PLANE('',#177);
#130=FACE_BOUND('',#178,.T.);
#131=FACE_BOUND('',#179,.T.);
#132=FACE_OUTER_BOUND('',#180,.T.);
#133=PLANE('',#181);
#134=FACE_OUTER_BOUND('',#182,.T.);
#135=CYLINDRICAL_SURFACE('',#183,3.0);
#136=FACE_BOUND('',#184,.T.);
#137=FACE_BOUND('',#185,.T.);
#138=FACE_OUTER_BOUND('',#186,.T.);
#139=PLANE('',#187);
#140=FACE_OUTER_BOUND('',#188,.T.);
#141=CYLINDRICAL_SURFACE('',#189,9.0);
#142=FACE_OUTER_BOUND('',#190,.T.);
#143=PLANE('',#191);
#144=EDGE_LOOP('',(#192,#193,#194,#195));
#145=AXIS2_PLACEMENT_3D('',#196,#197,#198);
#146=EDGE_LOOP('',(#199,#200,#201,#202));
#147=AXIS2_PLACEMENT_3D('',#203,#204,#205);
#148=EDGE_LOOP('',(#206,#207,#208,#209));
#149=AXIS2_PLACEMENT_3D('',#210,#211,#212);
#150=EDGE_LOOP('',(#213,#214,#215,#216));
#151=AXIS2_PLACEMENT_3D('',#217,#218,#219);
#152=EDGE_LOOP('',(#220,#221,#222,#223));
#153=AXIS2_PLACEMENT_3D('',#224,#225,#226);
#154=EDGE_LOOP('',(#227,#228,#229,#230));
#155=AXIS2_PLACEMENT_3D('',#231,#232,#233);
#156=EDGE_LOOP('',(#234,#235,#236,#237));
#157=AXIS2_PLACEMENT_3D('',#238,#239,#240);
#158=EDGE_LOOP('',(#241,#242,#243,#244));
#159=AXIS2_PLACEMENT_3D('',#245,#246,#247);
#160=EDGE_LOOP('',(#248,#249,#250,#251));
#161=AXIS2_PLACEMENT_3D('',#252,#253,#254);
#162=EDGE_LOOP('',(#255,#256,#257,#258));
#163=AXIS2_PLACEMENT_3D('',#259,#260,#261);
#164=EDGE_LOOP('',(#262,#263,#264,#265));
#165=AXIS2_PLACEMENT_3D('',#266,#267,#268);
#166=EDGE_LOOP('',(#269,#270));
#167=EDGE_LOOP('',(#271,#272));
#168=EDGE_LOOP('',(#273,#274,#275,#276,#277,#278));
#169=AXIS2_PLACEMENT_3D('',#279,#280,#281);
#170=EDGE_LOOP('',(#282,#283,#284,#285,#286,#287,#288,#289));
#171=AXIS2_PLACEMENT_3D('',#290,#291,#292);
#172=EDGE_LOOP('',(#293,#294));
#173=EDGE_LOOP('',(#295,#296));
#174=EDGE_LOOP('',(#297,#298,#299,#300));
#175=AXIS2_PLACEMENT_3D('',#301,#302,#303);
#176=EDGE_LOOP('',(#304,#305,#306,#307));
#177=AXIS2_PLACEMENT_3D('',#308,#309,#310);
#178=EDGE_LOOP('',(#311,#312));
#179=EDGE_LOOP('',(#313,#314));
#180=EDGE_LOOP('',(#315,#316,#317,#318));
#181=AXIS2_PLACEMENT_3D('',#319,#320,#321);
#182=EDGE_LOOP('',(#322,#323,#324,#325));
#183=AXIS2_PLACEMENT_3D('',#326,#327,#328);
#184=EDGE_LOOP('',(#329,#330));
#185=EDGE_LOOP('',(#331,#332));
#186=EDGE_LOOP('',(#333,#334,#335,#336,#337,#338));
#187=AXIS2_PLACEMENT_3D('',#339,#340,#341);
#188=EDGE_LOOP('',(#342,#343,#344,#345));
#189=AXIS2_PLACEMENT_3D('',#346,#347,#348);
#190=EDGE_LOOP('',(#349,#350,#351,#352,#353,#354,#355,#356));
#191=AXIS2_PLACEMENT_3D('',#357,#358,#359);
#192=ORIENTED_EDGE('',*,*,#360,.F.);
#193=ORIENTED_EDGE('',*,*,#361,.F.);
#194=ORIENTED_EDGE('',*,*,#362,.F.);
#195=ORIENTED_EDGE('',*,*,#363,.F.);
#196=CARTESIAN_POINT('',(-31.0,28.5,3.0));
#197=DIRECTION('',(0.0,0.0,1.0));
#198=DIRECTION('',(1.0,0.0,0.0));
#199=ORIENTED_EDGE('',*,*,#364,.F.);
#200=ORIENTED_EDGE('',*,*,#365,.F.);
#201=ORIENTED_EDGE('',*,*,#366,.F.);
#202=ORIENTED_EDGE('',*,*,#367,.F.);
#203=CARTESIAN_POINT('',(31.0,28.5,3.0));
#204=DIRECTION('',(0.0,0.0,1.0));
#205=DIRECTION('',(1.0,0.0,0.0));
#206=ORIENTED_EDGE('',*,*,#368,.F.);
#207=ORIENTED_EDGE('',*,*,#369,.F.);
#208=ORIENTED_EDGE('',*,*,#370,.F.);
#209=ORIENTED_EDGE('',*,*,#371,.F.);
#210=CARTESIAN_POINT('',(-31.0,3.0,27.0));
#211=DIRECTION('',(-0.0,1.0,0.0));
#212=DIRECTION('',(1.0,0.0,0.0));
#213=ORIENTED_EDGE('',*,*,#372,.F.);
#214=ORIENTED_EDGE('',*,*,#373,.F.);
#215=ORIENTED_EDGE('',*,*,#374,.F.);
#216=ORIENTED_EDGE('',*,*,#375,.F.);
#217=CARTESIAN_POINT('',(31.0,3.0,27.0));
#218=DIRECTION('',(-0.0,1.0,0.0));
#219=DIRECTION('',(1.0,0.0,0.0));
#220=ORIENTED_EDGE('',*,*,#372,.T.);
#221=ORIENTED_EDGE('',*,*,#376,.F.);
#222=ORIENTED_EDGE('',*,*,#374,.T.);
#223=ORIENTED_EDGE('',*,*,#377,.F.);
#224=CARTESIAN_POINT('',(31.0,3.0,27.0));
#225=DIRECTION('',(-0.0,1.0,0.0));
#226=DIRECTION('',(1.0,0.0,0.0));
#227=ORIENTED_EDGE('',*,*,#368,.T.);
#228=ORIENTED_EDGE('',*,*,#378,.F.);
#229=ORIENTED_EDGE('',*,*,#370,.T.);
#230=ORIENTED_EDGE('',*,*,#379,.F.);
#231=CARTESIAN_POINT('',(-31.0,3.0,27.0));
#232=DIRECTION('',(-0.0,1.0,0.0));
#233=DIRECTION('',(1.0,0.0,0.0));
#234=ORIENTED_EDGE('',*,*,#364,.T.);
#235=ORIENTED_EDGE('',*,*,#380,.F.);
#236=ORIENTED_EDGE('',*,*,#366,.T.);
#237=ORIENTED_EDGE('',*,*,#381,.F.);
#238=CARTESIAN_POINT('',(31.0,28.5,3.0));
#239=DIRECTION('',(0.0,0.0,1.0));
#240=DIRECTION('',(1.0,0.0,0.0));
#241=ORIENTED_EDGE('',*,*,#360,.T.);
#242=ORIENTED_EDGE('',*,*,#382,.F.);
#243=ORIENTED_EDGE('',*,*,#362,.T.);
#244=ORIENTED_EDGE('',*,*,#383,.F.);
#245=CARTESIAN_POINT('',(-31.0,28.5,3.0));
#246=DIRECTION('',(0.0,0.0,1.0));
#247=DIRECTION('',(1.0,0.0,0.0));
#248=ORIENTED_EDGE('',*,*,#384,.T.);
#249=ORIENTED_EDGE('',*,*,#385,.T.);
#250=ORIENTED_EDGE('',*,*,#386,.T.);
#251=ORIENTED_EDGE('',*,*,#387,.F.);
#252=CARTESIAN_POINT('',(-31.0,48.5,28.0));
#253=DIRECTION('',(0.0,-1.0,6.12303176911189E-17));
#254=DIRECTION('',(1.0,0.0,0.0));
#255=ORIENTED_EDGE('',*,*,#388,.T.);
#256=ORIENTED_EDGE('',*,*,#389,.T.);
#257=ORIENTED_EDGE('',*,*,#390,.T.);
#258=ORIENTED_EDGE('',*,*,#391,.F.);
#259=CARTESIAN_POINT('',(31.0,48.5,28.0));
#260=DIRECTION('',(0.0,-1.0,6.12303176911189E-17));
#261=DIRECTION('',(1.0,0.0,0.0));
#262=ORIENTED_EDGE('',*,*,#387,.T.);
#263=ORIENTED_EDGE('',*,*,#392,.F.);
#264=ORIENTED_EDGE('',*,*,#389,.F.);
#265=ORIENTED_EDGE('',*,*,#393,.T.);
#266=CARTESIAN_POINT('',(42.0,3.0,39.0));
#267=DIRECTION('',(6.12303176911189E-17,-0.0,1.0));
#268=DIRECTION('',(0.0,1.0,0.0));
#269=ORIENTED_EDGE('',*,*,#376,.T.);
#270=ORIENTED_EDGE('',*,*,#375,.T.);
#271=ORIENTED_EDGE('',*,*,#378,.T.);
#272=ORIENTED_EDGE('',*,*,#371,.T.);
#273=ORIENTED_EDGE('',*,*,#386,.F.);
#274=ORIENTED_EDGE('',*,*,#394,.T.);
#275=ORIENTED_EDGE('',*,*,#395,.F.);
#276=ORIENTED_EDGE('',*,*,#396,.T.);
#277=ORIENTED_EDGE('',*,*,#390,.F.);
#278=ORIENTED_EDGE('',*,*,#392,.T.);
#279=CARTESIAN_POINT('',(42.0,0.0,24.0));
#280=DIRECTION('',(0.0,-1.0,0.0));
#281=DIRECTION('',(6.12303176911189E-17,0.0,1.0));
#282=ORIENTED_EDGE('',*,*,#391,.T.);
#283=ORIENTED_EDGE('',*,*,#396,.F.);
#284=ORIENTED_EDGE('',*,*,#397,.F.);
#285=ORIENTED_EDGE('',*,*,#398,.F.);
#286=ORIENTED_EDGE('',*,*,#399,.F.);
#287=ORIENTED_EDGE('',*,*,#400,.F.);
#288=ORIENTED_EDGE('',*,*,#401,.T.);
#289=ORIENTED_EDGE('',*,*,#402,.F.);
#290=CARTESIAN_POINT('',(42.0,14.712709860597,12.3902135742625));
#291=DIRECTION('',(-1.0,0.0,6.12303176911189E-17));
#292=DIRECTION('',(6.12303176911189E-17,0.0,1.0));
#293=ORIENTED_EDGE('',*,*,#380,.T.);
#294=ORIENTED_EDGE('',*,*,#367,.T.);
#295=ORIENTED_EDGE('',*,*,#382,.T.);
#296=ORIENTED_EDGE('',*,*,#363,.T.);
#297=ORIENTED_EDGE('',*,*,#403,.T.);
#298=ORIENTED_EDGE('',*,*,#404,.F.);
#299=ORIENTED_EDGE('',*,*,#398,.T.);
#300=ORIENTED_EDGE('',*,*,#405,.T.);
#301=CARTESIAN_POINT('',(42.0,26.25,-2.57167334302699E-15));
#302=DIRECTION('',(-6.12303176911189E-17,-0.0,-1.0));
#303=DIRECTION('',(0.0,-1.0,0.0));
#304=ORIENTED_EDGE('',*,*,#406,.T.);
#305=ORIENTED_EDGE('',*,*,#407,.F.);
#306=ORIENTED_EDGE('',*,*,#399,.T.);
#307=ORIENTED_EDGE('',*,*,#404,.T.);
#308=CARTESIAN_POINT('',(42.0,43.5,3.0));
#309=DIRECTION('',(0.0,1.0,0.0));
#310=DIRECTION('',(-6.12303176911189E-17,0.0,-1.0));
#311=ORIENTED_EDGE('',*,*,#365,.T.);
#312=ORIENTED_EDGE('',*,*,#381,.T.);
#313=ORIENTED_EDGE('',*,*,#361,.T.);
#314=ORIENTED_EDGE('',*,*,#383,.T.);
#315=ORIENTED_EDGE('',*,*,#408,.T.);
#316=ORIENTED_EDGE('',*,*,#409,.F.);
#317=ORIENTED_EDGE('',*,*,#400,.T.);
#318=ORIENTED_EDGE('',*,*,#407,.T.);
#319=CARTESIAN_POINT('',(42.0,26.25,6.0));
#320=DIRECTION('',(6.12303176911189E-17,-0.0,1.0));
#321=DIRECTION('',(0.0,1.0,0.0));
#322=ORIENTED_EDGE('',*,*,#410,.T.);
#323=ORIENTED_EDGE('',*,*,#411,.F.);
#324=ORIENTED_EDGE('',*,*,#401,.F.);
#325=ORIENTED_EDGE('',*,*,#409,.T.);
#326=CARTESIAN_POINT('',(42.0,9.0,9.0));
#327=DIRECTION('',(-1.0,0.0,6.12303176911189E-17));
#328=DIRECTION('',(6.12303176911189E-17,0.0,1.0));
#329=ORIENTED_EDGE('',*,*,#373,.T.);
#330=ORIENTED_EDGE('',*,*,#377,.T.);
#331=ORIENTED_EDGE('',*,*,#369,.T.);
#332=ORIENTED_EDGE('',*,*,#379,.T.);
#333=ORIENTED_EDGE('',*,*,#384,.F.);
#334=ORIENTED_EDGE('',*,*,#393,.F.);
#335=ORIENTED_EDGE('',*,*,#388,.F.);
#336=ORIENTED_EDGE('',*,*,#402,.T.);
#337=ORIENTED_EDGE('',*,*,#411,.T.);
#338=ORIENTED_EDGE('',*,*,#412,.T.);
#339=CARTESIAN_POINT('',(42.0,6.0,24.0));
#340=DIRECTION('',(0.0,1.0,0.0));
#341=DIRECTION('',(-6.12303176911189E-17,0.0,-1.0));
#342=ORIENTED_EDGE('',*,*,#413,.T.);
#343=ORIENTED_EDGE('',*,*,#405,.F.);
#344=ORIENTED_EDGE('',*,*,#397,.T.);
#345=ORIENTED_EDGE('',*,*,#395,.T.);
#346=CARTESIAN_POINT('',(42.0,9.0,9.0));
#347=DIRECTION('',(-1.0,0.0,6.12303176911189E-17));
#348=DIRECTION('',(6.12303176911189E-17,0.0,1.0));
#349=ORIENTED_EDGE('',*,*,#385,.F.);
#350=ORIENTED_EDGE('',*,*,#412,.F.);
#351=ORIENTED_EDGE('',*,*,#410,.F.);
#352=ORIENTED_EDGE('',*,*,#408,.F.);
#353=ORIENTED_EDGE('',*,*,#406,.F.);
#354=ORIENTED_EDGE('',*,*,#403,.F.);
#355=ORIENTED_EDGE('',*,*,#413,.F.);
#356=ORIENTED_EDGE('',*,*,#394,.F.);
#357=CARTESIAN_POINT('',(-42.0,14.712709860597,12.3902135742625));
#358=DIRECTION('',(-1.0,0.0,6.12303176911189E-17));
#359=DIRECTION('',(6.12303176911189E-17,0.0,1.0));
#360=EDGE_CURVE('',#414,#415,#416,.T.);
#361=EDGE_CURVE('',#417,#414,#418,.T.);
#362=EDGE_CURVE('',#419,#417,#420,.T.);
#363=EDGE_CURVE('',#415,#419,#421,.T.);
#364=EDGE_CURVE('',#422,#423,#424,.T.);
#365=EDGE_CURVE('',#425,#422,#426,.T.);
#366=EDGE_CURVE('',#427,#425,#428,.T.);
#367=EDGE_CURVE('',#423,#427,#429,.T.);
#368=EDGE_CURVE('',#430,#431,#432,.T.);
#369=EDGE_CURVE('',#433,#430,#434,.T.);
#370=EDGE_CURVE('',#435,#433,#436,.T.);
#371=EDGE_CURVE('',#431,#435,#437,.T.);
#372=EDGE_CURVE('',#438,#439,#440,.T.);
#373=EDGE_CURVE('',#441,#438,#442,.T.);
#374=EDGE_CURVE('',#443,#441,#444,.T.);
#375=EDGE_CURVE('',#439,#443,#445,.T.);
#376=EDGE_CURVE('',#443,#439,#446,.T.);
#377=EDGE_CURVE('',#438,#441,#447,.T.);
#378=EDGE_CURVE('',#435,#431,#448,.T.);
#379=EDGE_CURVE('',#430,#433,#449,.T.);
#380=EDGE_CURVE('',#427,#423,#450,.T.);
#381=EDGE_CURVE('',#422,#425,#451,.T.);
#382=EDGE_CURVE('',#419,#415,#452,.T.);
#383=EDGE_CURVE('',#414,#417,#453,.T.);
#384=EDGE_CURVE('',#454,#455,#456,.T.);
#385=EDGE_CURVE('',#455,#457,#458,.T.);
#386=EDGE_CURVE('',#457,#459,#460,.T.);
#387=EDGE_CURVE('',#454,#459,#461,.T.);
#388=EDGE_CURVE('',#462,#463,#464,.T.);
#389=EDGE_CURVE('',#463,#465,#466,.T.);
#390=EDGE_CURVE('',#465,#467,#468,.T.);
#391=EDGE_CURVE('',#462,#467,#469,.T.);
#392=EDGE_CURVE('',#465,#459,#470,.T.);
#393=EDGE_CURVE('',#463,#454,#471,.T.);
#394=EDGE_CURVE('',#457,#472,#473,.T.);
#395=EDGE_CURVE('',#474,#472,#475,.T.);
#396=EDGE_CURVE('',#474,#467,#476,.T.);
#397=EDGE_CURVE('',#477,#474,#478,.T.);
#398=EDGE_CURVE('',#479,#477,#480,.T.);
#399=EDGE_CURVE('',#481,#479,#482,.T.);
#400=EDGE_CURVE('',#483,#481,#484,.T.);
#401=EDGE_CURVE('',#483,#485,#486,.T.);
#402=EDGE_CURVE('',#462,#485,#487,.T.);
#403=EDGE_CURVE('',#488,#489,#490,.T.);
#404=EDGE_CURVE('',#479,#489,#491,.T.);
#405=EDGE_CURVE('',#477,#488,#492,.T.);
#406=EDGE_CURVE('',#489,#493,#494,.T.);
#407=EDGE_CURVE('',#481,#493,#495,.T.);
#408=EDGE_CURVE('',#493,#496,#497,.T.);
#409=EDGE_CURVE('',#483,#496,#498,.T.);
#410=EDGE_CURVE('',#496,#499,#500,.T.);
#411=EDGE_CURVE('',#485,#499,#501,.T.);
#412=EDGE_CURVE('',#499,#455,#502,.T.);
#413=EDGE_CURVE('',#472,#488,#503,.T.);
#414=VERTEX_POINT('',#504);
#415=VERTEX_POINT('',#505);
#416=LINE('',#506,#507);
#417=VERTEX_POINT('',#508);
#418=CIRCLE('',#509,5.5);
#419=VERTEX_POINT('',#510);
#420=LINE('',#511,#512);
#421=CIRCLE('',#513,5.5);
#422=VERTEX_POINT('',#514);
#423=VERTEX_POINT('',#515);
#424=LINE('',#516,#517);
#425=VERTEX_POINT('',#518);
#426=CIRCLE('',#519,5.5);
#427=VERTEX_POINT('',#520);
#428=LINE('',#521,#522);
#429=CIRCLE('',#523,5.5);
#430=VERTEX_POINT('',#524);
#431=VERTEX_POINT('',#525);
#432=LINE('',#526,#527);
#433=VERTEX_POINT('',#528);
#434=CIRCLE('',#529,5.5);
#435=VERTEX_POINT('',#530);
#436=LINE('',#531,#532);
#437=CIRCLE('',#533,5.5);
#438=VERTEX_POINT('',#534);
#439=VERTEX_POINT('',#535);
#440=LINE('',#536,#537);
#441=VERTEX_POINT('',#538);
#442=CIRCLE('',#539,5.5);
#443=VERTEX_POINT('',#540);
#444=LINE('',#541,#542);
#445=CIRCLE('',#543,5.5);
#446=CIRCLE('',#544,5.5);
#447=CIRCLE('',#545,5.5);
#448=CIRCLE('',#546,5.5);
#449=CIRCLE('',#547,5.5);
#450=CIRCLE('',#548,5.5);
#451=CIRCLE('',#549,5.5);
#452=CIRCLE('',#550,5.5);
#453=CIRCLE('',#551,5.5);
#454=VERTEX_POINT('',#552);
#455=VERTEX_POINT('',#553);
#456=CIRCLE('',#554,11.0);
#457=VERTEX_POINT('',#555);
#458=LINE('',#556,#557);
#459=VERTEX_POINT('',#558);
#460=CIRCLE('',#559,11.0);
#461=LINE('',#560,#561);
#462=VERTEX_POINT('',#562);
#463=VERTEX_POINT('',#563);
#464=CIRCLE('',#564,11.0);
#465=VERTEX_POINT('',#565);
#466=LINE('',#566,#567);
#467=VERTEX_POINT('',#568);
#468=CIRCLE('',#569,11.0);
#469=LINE('',#570,#571);
#470=LINE('',#572,#573);
#471=LINE('',#574,#575);
#472=VERTEX_POINT('',#576);
#473=LINE('',#577,#578);
#474=VERTEX_POINT('',#579);
#475=LINE('',#580,#581);
#476=LINE('',#582,#583);
#477=VERTEX_POINT('',#584);
#478=CIRCLE('',#585,9.0);
#479=VERTEX_POINT('',#586);
#480=LINE('',#587,#588);
#481=VERTEX_POINT('',#589);
#482=LINE('',#590,#591);
#483=VERTEX_POINT('',#592);
#484=LINE('',#593,#594);
#485=VERTEX_POINT('',#595);
#486=CIRCLE('',#596,3.0);
#487=LINE('',#597,#598);
#488=VERTEX_POINT('',#599);
#489=VERTEX_POINT('',#600);
#490=LINE('',#601,#602);
#491=LINE('',#603,#604);
#492=LINE('',#605,#606);
#493=VERTEX_POINT('',#607);
#494=LINE('',#608,#609);
#495=LINE('',#610,#611);
#496=VERTEX_POINT('',#612);
#497=LINE('',#613,#614);
#498=LINE('',#615,#616);
#499=VERTEX_POINT('',#617);
#500=CIRCLE('',#618,3.0);
#501=LINE('',#619,#620);
#502=LINE('',#621,#622);
#503=CIRCLE('',#623,9.0);
#504=CARTESIAN_POINT('',(-25.5,28.5,6.0));
#505=CARTESIAN_POINT('',(-25.5,28.5,-3.00130200640153E-15));
#506=CARTESIAN_POINT('',(-25.5,28.5,3.0));
#507=VECTOR('',#624,1.0);
#508=CARTESIAN_POINT('',(-36.5,28.5,6.0));
#509=AXIS2_PLACEMENT_3D('',#625,#626,#627);
#510=CARTESIAN_POINT('',(-36.5,28.5,-2.66453525910038E-15));
#511=CARTESIAN_POINT('',(-36.5,28.5,3.0));
#512=VECTOR('',#628,1.0);
#513=AXIS2_PLACEMENT_3D('',#629,#630,#631);
#514=CARTESIAN_POINT('',(36.5,28.5,6.0));
#515=CARTESIAN_POINT('',(36.5,28.5,-3.00130200640153E-15));
#516=CARTESIAN_POINT('',(36.5,28.5,3.0));
#517=VECTOR('',#632,1.0);
#518=CARTESIAN_POINT('',(25.5,28.5,6.0));
#519=AXIS2_PLACEMENT_3D('',#633,#634,#635);
#520=CARTESIAN_POINT('',(25.5,28.5,-2.66453525910038E-15));
#521=CARTESIAN_POINT('',(25.5,28.5,3.0));
#522=VECTOR('',#636,1.0);
#523=AXIS2_PLACEMENT_3D('',#637,#638,#639);
#524=CARTESIAN_POINT('',(-25.5,6.0,27.0));
#525=CARTESIAN_POINT('',(-25.5,0.0,27.0));
#526=CARTESIAN_POINT('',(-25.5,3.0,27.0));
#527=VECTOR('',#640,1.0);
#528=CARTESIAN_POINT('',(-36.5,6.0,27.0));
#529=AXIS2_PLACEMENT_3D('',#641,#642,#643);
#530=CARTESIAN_POINT('',(-36.5,0.0,27.0));
#531=CARTESIAN_POINT('',(-36.5,3.0,27.0));
#532=VECTOR('',#644,1.0);
#533=AXIS2_PLACEMENT_3D('',#645,#646,#647);
#534=CARTESIAN_POINT('',(36.5,6.0,27.0));
#535=CARTESIAN_POINT('',(36.5,0.0,27.0));
#536=CARTESIAN_POINT('',(36.5,3.0,27.0));
#537=VECTOR('',#648,1.0);
#538=CARTESIAN_POINT('',(25.5,6.0,27.0));
#539=AXIS2_PLACEMENT_3D('',#649,#650,#651);
#540=CARTESIAN_POINT('',(25.5,0.0,27.0));
#541=CARTESIAN_POINT('',(25.5,3.0,27.0));
#542=VECTOR('',#652,1.0);
#543=AXIS2_PLACEMENT_3D('',#653,#654,#655);
#544=AXIS2_PLACEMENT_3D('',#656,#657,#658);
#545=AXIS2_PLACEMENT_3D('',#659,#660,#661);
#546=AXIS2_PLACEMENT_3D('',#662,#663,#664);
#547=AXIS2_PLACEMENT_3D('',#665,#666,#667);
#548=AXIS2_PLACEMENT_3D('',#668,#669,#670);
#549=AXIS2_PLACEMENT_3D('',#671,#672,#673);
#550=AXIS2_PLACEMENT_3D('',#674,#675,#676);
#551=AXIS2_PLACEMENT_3D('',#677,#678,#679);
#552=CARTESIAN_POINT('',(-31.0,6.0,39.0));
#553=CARTESIAN_POINT('',(-42.0,6.0,28.0));
#554=AXIS2_PLACEMENT_3D('',#680,#681,#682);
#555=CARTESIAN_POINT('',(-42.0,0.0,28.0));
#556=CARTESIAN_POINT('',(-42.0,21.75,28.0));
#557=VECTOR('',#683,1.0);
#558=CARTESIAN_POINT('',(-31.0,0.0,39.0));
#559=AXIS2_PLACEMENT_3D('',#684,#685,#686);
#560=CARTESIAN_POINT('',(-31.0,3.0,39.0));
#561=VECTOR('',#687,1.0);
#562=CARTESIAN_POINT('',(42.0,6.0,28.0));
#563=CARTESIAN_POINT('',(31.0,6.0,39.0));
#564=AXIS2_PLACEMENT_3D('',#688,#689,#690);
#565=CARTESIAN_POINT('',(31.0,0.0,39.0));
#566=CARTESIAN_POINT('',(31.0,3.0,39.0));
#567=VECTOR('',#691,1.0);
#568=CARTESIAN_POINT('',(42.0,0.0,28.0));
#569=AXIS2_PLACEMENT_3D('',#692,#693,#694);
#570=CARTESIAN_POINT('',(42.0,21.75,28.0));
#571=VECTOR('',#695,1.0);
#572=CARTESIAN_POINT('',(42.0,0.0,39.0));
#573=VECTOR('',#696,1.0);
#574=CARTESIAN_POINT('',(42.0,6.0,39.0));
#575=VECTOR('',#697,1.0);
#576=CARTESIAN_POINT('',(-42.0,0.0,9.0));
#577=CARTESIAN_POINT('',(-42.0,0.0,9.0));
#578=VECTOR('',#698,1.0);
#579=CARTESIAN_POINT('',(42.0,0.0,9.0));
#580=CARTESIAN_POINT('',(42.0,0.0,9.0));
#581=VECTOR('',#699,1.0);
#582=CARTESIAN_POINT('',(42.0,0.0,9.0));
#583=VECTOR('',#700,1.0);
#584=CARTESIAN_POINT('',(42.0,9.0,-2.57167334302699E-15));
#585=AXIS2_PLACEMENT_3D('',#701,#702,#703);
#586=CARTESIAN_POINT('',(42.0,43.5,-2.57167334302699E-15));
#587=CARTESIAN_POINT('',(42.0,43.5,-2.57167334302699E-15));
#588=VECTOR('',#704,1.0);
#589=CARTESIAN_POINT('',(42.0,43.5,6.0));
#590=CARTESIAN_POINT('',(42.0,43.5,6.0));
#591=VECTOR('',#705,1.0);
#592=CARTESIAN_POINT('',(42.0,9.0,6.0));
#593=CARTESIAN_POINT('',(42.0,9.0,6.0));
#594=VECTOR('',#706,1.0);
#595=CARTESIAN_POINT('',(42.0,6.0,9.0));
#596=AXIS2_PLACEMENT_3D('',#707,#708,#709);
#597=CARTESIAN_POINT('',(42.0,6.0,39.0));
#598=VECTOR('',#710,1.0);
#599=CARTESIAN_POINT('',(-42.0,9.0,2.57167334302699E-15));
#600=CARTESIAN_POINT('',(-42.0,43.5,2.57167334302699E-15));
#601=CARTESIAN_POINT('',(-42.0,43.5,2.57167334302699E-15));
#602=VECTOR('',#711,1.0);
#603=CARTESIAN_POINT('',(42.0,43.5,-2.57167334302699E-15));
#604=VECTOR('',#712,1.0);
#605=CARTESIAN_POINT('',(42.0,9.0,-2.57167334302699E-15));
#606=VECTOR('',#713,1.0);
#607=CARTESIAN_POINT('',(-42.0,43.5,6.0));
#608=CARTESIAN_POINT('',(-42.0,43.5,6.0));
#609=VECTOR('',#714,1.0);
#610=CARTESIAN_POINT('',(42.0,43.5,6.0));
#611=VECTOR('',#715,1.0);
#612=CARTESIAN_POINT('',(-42.0,9.0,6.0));
#613=CARTESIAN_POINT('',(-42.0,9.0,6.0));
#614=VECTOR('',#716,1.0);
#615=CARTESIAN_POINT('',(42.0,9.0,6.0));
#616=VECTOR('',#717,1.0);
#617=CARTESIAN_POINT('',(-42.0,6.0,9.0));
#618=AXIS2_PLACEMENT_3D('',#718,#719,#720);
#619=CARTESIAN_POINT('',(42.0,6.0,9.0));
#620=VECTOR('',#721,1.0);
#621=CARTESIAN_POINT('',(-42.0,6.0,39.0));
#622=VECTOR('',#722,1.0);
#623=AXIS2_PLACEMENT_3D('',#723,#724,#725);
#624=DIRECTION('',(-0.0,-0.0,-1.0));
#625=CARTESIAN_POINT('',(-31.0,28.5,6.0));
#626=DIRECTION('',(-6.12303176911189E-17,-0.0,-1.0));
#627=DIRECTION('',(1.0,0.0,-6.12303176911189E-17));
#628=DIRECTION('',(-0.0,0.0,1.0));
#629=CARTESIAN_POINT('',(-31.0,28.5,-2.66453525910038E-15));
#630=DIRECTION('',(6.12303176911189E-17,-0.0,1.0));
#631=DIRECTION('',(1.0,0.0,-6.12303176911189E-17));
#632=DIRECTION('',(-0.0,-0.0,-1.0));
#633=CARTESIAN_POINT('',(31.0,28.5,6.0));
#634=DIRECTION('',(-6.12303176911189E-17,-0.0,-1.0));
#635=DIRECTION('',(1.0,0.0,-6.12303176911189E-17));
#636=DIRECTION('',(-0.0,0.0,1.0));
#637=CARTESIAN_POINT('',(31.0,28.5,-2.66453525910038E-15));
#638=DIRECTION('',(6.12303176911189E-17,-0.0,1.0));
#639=DIRECTION('',(1.0,0.0,-6.12303176911189E-17));
#640=DIRECTION('',(-0.0,-1.0,-0.0));
#641=CARTESIAN_POINT('',(-31.0,6.0,27.0));
#642=DIRECTION('',(0.0,-1.0,0.0));
#643=DIRECTION('',(1.0,0.0,0.0));
#644=DIRECTION('',(-0.0,1.0,0.0));
#645=CARTESIAN_POINT('',(-31.0,0.0,27.0));
#646=DIRECTION('',(-0.0,1.0,0.0));
#647=DIRECTION('',(1.0,0.0,0.0));
#648=DIRECTION('',(-0.0,-1.0,-0.0));
#649=CARTESIAN_POINT('',(31.0,6.0,27.0));
#650=DIRECTION('',(0.0,-1.0,0.0));
#651=DIRECTION('',(1.0,0.0,0.0));
#652=DIRECTION('',(-0.0,1.0,0.0));
#653=CARTESIAN_POINT('',(31.0,0.0,27.0));
#654=DIRECTION('',(-0.0,1.0,0.0));
#655=DIRECTION('',(1.0,0.0,0.0));
#656=CARTESIAN_POINT('',(31.0,0.0,27.0));
#657=DIRECTION('',(-0.0,1.0,0.0));
#658=DIRECTION('',(1.0,0.0,0.0));
#659=CARTESIAN_POINT('',(31.0,6.0,27.0));
#660=DIRECTION('',(0.0,-1.0,0.0));
#661=DIRECTION('',(1.0,0.0,0.0));
#662=CARTESIAN_POINT('',(-31.0,0.0,27.0));
#663=DIRECTION('',(-0.0,1.0,0.0));
#664=DIRECTION('',(1.0,0.0,0.0));
#665=CARTESIAN_POINT('',(-31.0,6.0,27.0));
#666=DIRECTION('',(0.0,-1.0,0.0));
#667=DIRECTION('',(1.0,0.0,0.0));
#668=CARTESIAN_POINT('',(31.0,28.5,-2.66453525910038E-15));
#669=DIRECTION('',(6.12303176911189E-17,-0.0,1.0));
#670=DIRECTION('',(1.0,0.0,-6.12303176911189E-17));
#671=CARTESIAN_POINT('',(31.0,28.5,6.0));
#672=DIRECTION('',(-6.12303176911189E-17,-0.0,-1.0));
#673=DIRECTION('',(1.0,0.0,-6.12303176911189E-17));
#674=CARTESIAN_POINT('',(-31.0,28.5,-2.66453525910038E-15));
#675=DIRECTION('',(6.12303176911189E-17,-0.0,1.0));
#676=DIRECTION('',(1.0,0.0,-6.12303176911189E-17));
#677=CARTESIAN_POINT('',(-31.0,28.5,6.0));
#678=DIRECTION('',(-6.12303176911189E-17,-0.0,-1.0));
#679=DIRECTION('',(1.0,0.0,-6.12303176911189E-17));
#680=CARTESIAN_POINT('',(-31.0,6.0,28.0));
#681=DIRECTION('',(0.0,-1.0,0.0));
#682=DIRECTION('',(1.0,0.0,0.0));
#683=DIRECTION('',(0.0,-1.0,6.12303176911189E-17));
#684=CARTESIAN_POINT('',(-31.0,0.0,28.0));
#685=DIRECTION('',(-0.0,1.0,0.0));
#686=DIRECTION('',(1.0,0.0,0.0));
#687=DIRECTION('',(0.0,-1.0,6.12303176911189E-17));
#688=CARTESIAN_POINT('',(31.0,6.0,28.0));
#689=DIRECTION('',(0.0,-1.0,0.0));
#690=DIRECTION('',(1.0,0.0,0.0));
#691=DIRECTION('',(0.0,-1.0,6.12303176911189E-17));
#692=CARTESIAN_POINT('',(31.0,0.0,28.0));
#693=DIRECTION('',(-0.0,1.0,0.0));
#694=DIRECTION('',(1.0,0.0,0.0));
#695=DIRECTION('',(0.0,-1.0,6.12303176911189E-17));
#696=DIRECTION('',(-1.0,0.0,6.12303176911189E-17));
#697=DIRECTION('',(-1.0,0.0,6.12303176911189E-17));
#698=DIRECTION('',(-6.12303176911189E-17,-0.0,-1.0));
#699=DIRECTION('',(-1.0,0.0,6.12303176911189E-17));
#700=DIRECTION('',(6.12303176911189E-17,0.0,1.0));
#701=CARTESIAN_POINT('',(42.0,9.0,9.0));
#702=DIRECTION('',(-1.0,0.0,6.12303176911189E-17));
#703=DIRECTION('',(6.12303176911189E-17,0.0,1.0));
#704=DIRECTION('',(0.0,-1.0,0.0));
#705=DIRECTION('',(-6.12303176911189E-17,0.0,-1.0));
#706=DIRECTION('',(0.0,1.0,0.0));
#707=CARTESIAN_POINT('',(42.0,9.0,9.0));
#708=DIRECTION('',(-1.0,0.0,6.12303176911189E-17));
#709=DIRECTION('',(6.12303176911189E-17,0.0,1.0));
#710=DIRECTION('',(-6.12303176911189E-17,0.0,-1.0));
#711=DIRECTION('',(0.0,1.0,0.0));
#712=DIRECTION('',(-1.0,0.0,6.12303176911189E-17));
#713=DIRECTION('',(-1.0,0.0,6.12303176911189E-17));
#714=DIRECTION('',(6.12303176911189E-17,0.0,1.0));
#715=DIRECTION('',(-1.0,0.0,6.12303176911189E-17));
#716=DIRECTION('',(0.0,-1.0,-0.0));
#717=DIRECTION('',(-1.0,0.0,6.12303176911189E-17));
#718=CARTESIAN_POINT('',(-42.0,9.0,9.0));
#719=DIRECTION('',(-1.0,0.0,6.12303176911189E-17));
#720=DIRECTION('',(6.12303176911189E-17,0.0,1.0));
#721=DIRECTION('',(-1.0,0.0,6.12303176911189E-17));
#722=DIRECTION('',(6.12303176911189E-17,0.0,1.0));
#723=CARTESIAN_POINT('',(-42.0,9.0,9.0));
#724=DIRECTION('',(1.0,0.0,-6.12303176911189E-17));
#725=DIRECTION('',(6.12303176911189E-17,0.0,1.0));
ENDSEC;
END-ISO-10303-21;
