ISO-10303-21;
HEADER;
FILE_DESCRIPTION(('STEP AP203'),'1');
FILE_NAME('equerre_pd_32.stp','2018-10-24T20:22:40',('TraceParts'),('TraceParts S.A.'),'Spatial InterOp 3D',' ',' ');
FILE_SCHEMA(('CONFIG_CONTROL_DESIGN'));
ENDSEC;
DATA;
#1=DESIGN_CONTEXT('',#27,'design');
#2=APPLICATION_PROTOCOL_DEFINITION('INTERNATIONAL STANDARD','config_control_design',1994,#27);
#3=PRODUCT_CATEGORY_RELATIONSHIP('NONE','NONE',#28,#29);
#4=DATE_AND_TIME(#30,#31);
#5=DATE_TIME_ROLE('creation_date');
#6=DATE_TIME_ROLE('classification_date');
#7=PERSON_AND_ORGANIZATION_ROLE('creator');
#8=PERSON_AND_ORGANIZATION_ROLE('design_supplier');
#9=PERSON_AND_ORGANIZATION_ROLE('classification_officer');
#10=PERSON_AND_ORGANIZATION_ROLE('design_owner');
#11=APPROVAL_PERSON_ORGANIZATION(#32,#33,#34);
#12=APPROVAL_DATE_TIME(#4,#33);
#13=CC_DESIGN_APPROVAL(#33,(#35,#36,#37));
#14=CC_DESIGN_DATE_AND_TIME_ASSIGNMENT(#4,#5,(#37));
#15=CC_DESIGN_DATE_AND_TIME_ASSIGNMENT(#4,#6,(#35));
#16=CC_DESIGN_PERSON_AND_ORGANIZATION_ASSIGNMENT(#32,#10,(#38));
#17=CC_DESIGN_PERSON_AND_ORGANIZATION_ASSIGNMENT(#32,#7,(#37));
#18=CC_DESIGN_PERSON_AND_ORGANIZATION_ASSIGNMENT(#32,#7,(#36));
#19=CC_DESIGN_PERSON_AND_ORGANIZATION_ASSIGNMENT(#32,#8,(#36));
#20=CC_DESIGN_SECURITY_CLASSIFICATION(#35,(#36));
#21=CC_DESIGN_PERSON_AND_ORGANIZATION_ASSIGNMENT(#32,#9,(#35));
#22=SHAPE_DEFINITION_REPRESENTATION(#39,#40);
#23= (GEOMETRIC_REPRESENTATION_CONTEXT(3)GLOBAL_UNCERTAINTY_ASSIGNED_CONTEXT((#43))GLOBAL_UNIT_ASSIGNED_CONTEXT((#45,#46,#47))REPRESENTATION_CONTEXT('NONE','WORKSPACE'));
#27=APPLICATION_CONTEXT('CONFIGURATION CONTROLLED 3D DESIGNS OF MECHANICAL PARTS AND ASSEMBLIES');
#28=PRODUCT_CATEGORY('part','NONE');
#29=PRODUCT_RELATED_PRODUCT_CATEGORY('detail',' ',(#38));
#30=CALENDAR_DATE(2018,24,9);
#31=LOCAL_TIME(22,22,40.0,#49);
#32=PERSON_AND_ORGANIZATION(#50,#51);
#33=APPROVAL(#52,'SOLID MODEL');
#34=APPROVAL_ROLE('APPROVED');
#35=SECURITY_CLASSIFICATION('','',#53);
#36=PRODUCT_DEFINITION_FORMATION_WITH_SPECIFIED_SOURCE(' ','NONE',#38,.NOT_KNOWN.);
#37=PRODUCT_DEFINITION('','NONE',#36,#1);
#38=PRODUCT('1','','PART--DESC',(#54));
#39=PRODUCT_DEFINITION_SHAPE('NONE','NONE',#37);
#40=ADVANCED_BREP_SHAPE_REPRESENTATION('1',(#55,#56),#23);
#43=UNCERTAINTY_MEASURE_WITH_UNIT(LENGTH_MEASURE(1.0E-06),#45,'','');
#45= (CONVERSION_BASED_UNIT('MILLIMETRE',#59)LENGTH_UNIT()NAMED_UNIT(#62));
#46= (NAMED_UNIT(#64)PLANE_ANGLE_UNIT()SI_UNIT($,.RADIAN.));
#47= (NAMED_UNIT(#64)SOLID_ANGLE_UNIT()SI_UNIT($,.STERADIAN.));
#49=COORDINATED_UNIVERSAL_TIME_OFFSET(1,0,.AHEAD.);
#50=PERSON('','UNSPECIFIED',$,$,$,$);
#51=ORGANIZATION('UNSPECIFIED','UNSPECIFIED','UNSPECIFIED');
#52=APPROVAL_STATUS('approved');
#53=SECURITY_CLASSIFICATION_LEVEL('unclassified');
#54=MECHANICAL_CONTEXT('',#27,'mechanical');
#55=MANIFOLD_SOLID_BREP('1',#70);
#56=AXIS2_PLACEMENT_3D('',#71,#72,#73);
#59=LENGTH_MEASURE_WITH_UNIT(LENGTH_MEASURE(1.0),#74);
#62=DIMENSIONAL_EXPONENTS(1.0,0.0,0.0,0.0,0.0,0.0,0.0);
#64=DIMENSIONAL_EXPONENTS(0.0,0.0,0.0,0.0,0.0,0.0,0.0);
#70=CLOSED_SHELL('',(#75,#76,#77,#78,#79,#80,#81,#82,#83,#84,#85,#86,#87,#88));
#71=CARTESIAN_POINT('',(0.0,0.0,0.0));
#72=DIRECTION('',(0.0,0.0,1.0));
#73=DIRECTION('',(1.0,0.0,0.0));
#74= (NAMED_UNIT(#62)LENGTH_UNIT()SI_UNIT(.MILLI.,.METRE.));
#75=ADVANCED_FACE('',(#90),#91,.F.);
#76=ADVANCED_FACE('',(#92),#93,.F.);
#77=ADVANCED_FACE('',(#94),#95,.F.);
#78=ADVANCED_FACE('',(#96),#97,.F.);
#79=ADVANCED_FACE('',(#98),#99,.F.);
#80=ADVANCED_FACE('',(#100),#101,.F.);
#81=ADVANCED_FACE('',(#102),#103,.F.);
#82=ADVANCED_FACE('',(#104),#105,.F.);
#83=ADVANCED_FACE('',(#106,#107,#108),#109,.T.);
#84=ADVANCED_FACE('',(#110,#111,#112),#113,.F.);
#85=ADVANCED_FACE('',(#114,#115,#116),#117,.F.);
#86=ADVANCED_FACE('',(#118),#119,.F.);
#87=ADVANCED_FACE('',(#120,#121,#122),#123,.F.);
#88=ADVANCED_FACE('',(#124),#125,.F.);
#90=FACE_OUTER_BOUND('',#126,.T.);
#91=CYLINDRICAL_SURFACE('',#127,2.75);
#92=FACE_OUTER_BOUND('',#128,.T.);
#93=CYLINDRICAL_SURFACE('',#129,2.75);
#94=FACE_OUTER_BOUND('',#130,.T.);
#95=CYLINDRICAL_SURFACE('',#131,2.9);
#96=FACE_OUTER_BOUND('',#132,.T.);
#97=CYLINDRICAL_SURFACE('',#133,2.9);
#98=FACE_OUTER_BOUND('',#134,.T.);
#99=CYLINDRICAL_SURFACE('',#135,2.9);
#100=FACE_OUTER_BOUND('',#136,.T.);
#101=CYLINDRICAL_SURFACE('',#137,2.9);
#102=FACE_OUTER_BOUND('',#138,.T.);
#103=CYLINDRICAL_SURFACE('',#139,2.75);
#104=FACE_OUTER_BOUND('',#140,.T.);
#105=CYLINDRICAL_SURFACE('',#141,2.75);
#106=FACE_BOUND('',#142,.T.);
#107=FACE_BOUND('',#143,.T.);
#108=FACE_OUTER_BOUND('',#144,.T.);
#109=PLANE('',#145);
#110=FACE_BOUND('',#146,.T.);
#111=FACE_BOUND('',#147,.T.);
#112=FACE_OUTER_BOUND('',#148,.T.);
#113=PLANE('',#149);
#114=FACE_BOUND('',#150,.T.);
#115=FACE_BOUND('',#151,.T.);
#116=FACE_OUTER_BOUND('',#152,.T.);
#117=PLANE('',#153);
#118=FACE_OUTER_BOUND('',#154,.T.);
#119=PLANE('',#155);
#120=FACE_BOUND('',#156,.T.);
#121=FACE_BOUND('',#157,.T.);
#122=FACE_OUTER_BOUND('',#158,.T.);
#123=PLANE('',#159);
#124=FACE_OUTER_BOUND('',#160,.T.);
#125=PLANE('',#161);
#126=EDGE_LOOP('',(#162,#163,#164,#165));
#127=AXIS2_PLACEMENT_3D('',#166,#167,#168);
#128=EDGE_LOOP('',(#169,#170,#171,#172));
#129=AXIS2_PLACEMENT_3D('',#173,#174,#175);
#130=EDGE_LOOP('',(#176,#177,#178,#179));
#131=AXIS2_PLACEMENT_3D('',#180,#181,#182);
#132=EDGE_LOOP('',(#183,#184,#185,#186));
#133=AXIS2_PLACEMENT_3D('',#187,#188,#189);
#134=EDGE_LOOP('',(#190,#191,#192,#193));
#135=AXIS2_PLACEMENT_3D('',#194,#195,#196);
#136=EDGE_LOOP('',(#197,#198,#199,#200));
#137=AXIS2_PLACEMENT_3D('',#201,#202,#203);
#138=EDGE_LOOP('',(#204,#205,#206,#207));
#139=AXIS2_PLACEMENT_3D('',#208,#209,#210);
#140=EDGE_LOOP('',(#211,#212,#213,#214));
#141=AXIS2_PLACEMENT_3D('',#215,#216,#217);
#142=EDGE_LOOP('',(#218,#219));
#143=EDGE_LOOP('',(#220,#221));
#144=EDGE_LOOP('',(#222,#223,#224,#225));
#145=AXIS2_PLACEMENT_3D('',#226,#227,#228);
#146=EDGE_LOOP('',(#229,#230));
#147=EDGE_LOOP('',(#231,#232));
#148=EDGE_LOOP('',(#233,#234,#235,#236));
#149=AXIS2_PLACEMENT_3D('',#237,#238,#239);
#150=EDGE_LOOP('',(#240,#241));
#151=EDGE_LOOP('',(#242,#243));
#152=EDGE_LOOP('',(#244,#245,#246,#247));
#153=AXIS2_PLACEMENT_3D('',#248,#249,#250);
#154=EDGE_LOOP('',(#251,#252,#253,#254));
#155=AXIS2_PLACEMENT_3D('',#255,#256,#257);
#156=EDGE_LOOP('',(#258,#259));
#157=EDGE_LOOP('',(#260,#261));
#158=EDGE_LOOP('',(#262,#263,#264,#265));
#159=AXIS2_PLACEMENT_3D('',#266,#267,#268);
#160=EDGE_LOOP('',(#269,#270,#271,#272));
#161=AXIS2_PLACEMENT_3D('',#273,#274,#275);
#162=ORIENTED_EDGE('',*,*,#276,.F.);
#163=ORIENTED_EDGE('',*,*,#277,.F.);
#164=ORIENTED_EDGE('',*,*,#278,.F.);
#165=ORIENTED_EDGE('',*,*,#279,.F.);
#166=CARTESIAN_POINT('',(-25.0,-18.0,6.0));
#167=DIRECTION('',(-0.0,1.0,0.0));
#168=DIRECTION('',(1.0,0.0,0.0));
#169=ORIENTED_EDGE('',*,*,#280,.F.);
#170=ORIENTED_EDGE('',*,*,#281,.F.);
#171=ORIENTED_EDGE('',*,*,#282,.F.);
#172=ORIENTED_EDGE('',*,*,#283,.F.);
#173=CARTESIAN_POINT('',(25.0,-18.0,6.0));
#174=DIRECTION('',(-0.0,1.0,0.0));
#175=DIRECTION('',(1.0,0.0,0.0));
#176=ORIENTED_EDGE('',*,*,#284,.F.);
#177=ORIENTED_EDGE('',*,*,#285,.F.);
#178=ORIENTED_EDGE('',*,*,#286,.F.);
#179=ORIENTED_EDGE('',*,*,#287,.F.);
#180=CARTESIAN_POINT('',(-16.0,-18.0,6.0));
#181=DIRECTION('',(0.0,0.0,1.0));
#182=DIRECTION('',(1.0,0.0,0.0));
#183=ORIENTED_EDGE('',*,*,#288,.F.);
#184=ORIENTED_EDGE('',*,*,#289,.F.);
#185=ORIENTED_EDGE('',*,*,#290,.F.);
#186=ORIENTED_EDGE('',*,*,#291,.F.);
#187=CARTESIAN_POINT('',(16.0,-18.0,6.0));
#188=DIRECTION('',(0.0,0.0,1.0));
#189=DIRECTION('',(1.0,0.0,0.0));
#190=ORIENTED_EDGE('',*,*,#288,.T.);
#191=ORIENTED_EDGE('',*,*,#292,.F.);
#192=ORIENTED_EDGE('',*,*,#290,.T.);
#193=ORIENTED_EDGE('',*,*,#293,.F.);
#194=CARTESIAN_POINT('',(16.0,-18.0,6.0));
#195=DIRECTION('',(0.0,0.0,1.0));
#196=DIRECTION('',(1.0,0.0,0.0));
#197=ORIENTED_EDGE('',*,*,#284,.T.);
#198=ORIENTED_EDGE('',*,*,#294,.F.);
#199=ORIENTED_EDGE('',*,*,#286,.T.);
#200=ORIENTED_EDGE('',*,*,#295,.F.);
#201=CARTESIAN_POINT('',(-16.0,-18.0,6.0));
#202=DIRECTION('',(0.0,0.0,1.0));
#203=DIRECTION('',(1.0,0.0,0.0));
#204=ORIENTED_EDGE('',*,*,#280,.T.);
#205=ORIENTED_EDGE('',*,*,#296,.F.);
#206=ORIENTED_EDGE('',*,*,#282,.T.);
#207=ORIENTED_EDGE('',*,*,#297,.F.);
#208=CARTESIAN_POINT('',(25.0,-18.0,6.0));
#209=DIRECTION('',(-0.0,1.0,0.0));
#210=DIRECTION('',(1.0,0.0,0.0));
#211=ORIENTED_EDGE('',*,*,#276,.T.);
#212=ORIENTED_EDGE('',*,*,#298,.F.);
#213=ORIENTED_EDGE('',*,*,#278,.T.);
#214=ORIENTED_EDGE('',*,*,#299,.F.);
#215=CARTESIAN_POINT('',(-25.0,-18.0,6.0));
#216=DIRECTION('',(-0.0,1.0,0.0));
#217=DIRECTION('',(1.0,0.0,0.0));
#218=ORIENTED_EDGE('',*,*,#289,.T.);
#219=ORIENTED_EDGE('',*,*,#293,.T.);
#220=ORIENTED_EDGE('',*,*,#285,.T.);
#221=ORIENTED_EDGE('',*,*,#295,.T.);
#222=ORIENTED_EDGE('',*,*,#300,.T.);
#223=ORIENTED_EDGE('',*,*,#301,.T.);
#224=ORIENTED_EDGE('',*,*,#302,.T.);
#225=ORIENTED_EDGE('',*,*,#303,.T.);
#226=CARTESIAN_POINT('',(0.0,-18.0,12.0));
#227=DIRECTION('',(0.0,0.0,1.0));
#228=DIRECTION('',(1.0,0.0,0.0));
#229=ORIENTED_EDGE('',*,*,#292,.T.);
#230=ORIENTED_EDGE('',*,*,#291,.T.);
#231=ORIENTED_EDGE('',*,*,#294,.T.);
#232=ORIENTED_EDGE('',*,*,#287,.T.);
#233=ORIENTED_EDGE('',*,*,#304,.T.);
#234=ORIENTED_EDGE('',*,*,#305,.T.);
#235=ORIENTED_EDGE('',*,*,#306,.T.);
#236=ORIENTED_EDGE('',*,*,#307,.T.);
#237=CARTESIAN_POINT('',(0.0,-18.0,0.0));
#238=DIRECTION('',(0.0,0.0,1.0));
#239=DIRECTION('',(1.0,0.0,0.0));
#240=ORIENTED_EDGE('',*,*,#296,.T.);
#241=ORIENTED_EDGE('',*,*,#283,.T.);
#242=ORIENTED_EDGE('',*,*,#298,.T.);
#243=ORIENTED_EDGE('',*,*,#279,.T.);
#244=ORIENTED_EDGE('',*,*,#308,.T.);
#245=ORIENTED_EDGE('',*,*,#305,.F.);
#246=ORIENTED_EDGE('',*,*,#309,.F.);
#247=ORIENTED_EDGE('',*,*,#303,.F.);
#248=CARTESIAN_POINT('',(0.0,-24.0,6.0));
#249=DIRECTION('',(0.0,1.0,0.0));
#250=DIRECTION('',(0.0,0.0,1.0));
#251=ORIENTED_EDGE('',*,*,#310,.T.);
#252=ORIENTED_EDGE('',*,*,#306,.F.);
#253=ORIENTED_EDGE('',*,*,#308,.F.);
#254=ORIENTED_EDGE('',*,*,#302,.F.);
#255=CARTESIAN_POINT('',(-30.0,-18.0,6.0));
#256=DIRECTION('',(1.0,0.0,0.0));
#257=DIRECTION('',(0.0,0.0,-1.0));
#258=ORIENTED_EDGE('',*,*,#281,.T.);
#259=ORIENTED_EDGE('',*,*,#297,.T.);
#260=ORIENTED_EDGE('',*,*,#277,.T.);
#261=ORIENTED_EDGE('',*,*,#299,.T.);
#262=ORIENTED_EDGE('',*,*,#311,.T.);
#263=ORIENTED_EDGE('',*,*,#307,.F.);
#264=ORIENTED_EDGE('',*,*,#310,.F.);
#265=ORIENTED_EDGE('',*,*,#301,.F.);
#266=CARTESIAN_POINT('',(0.0,-12.0,6.0));
#267=DIRECTION('',(0.0,-1.0,0.0));
#268=DIRECTION('',(0.0,0.0,-1.0));
#269=ORIENTED_EDGE('',*,*,#309,.T.);
#270=ORIENTED_EDGE('',*,*,#304,.F.);
#271=ORIENTED_EDGE('',*,*,#311,.F.);
#272=ORIENTED_EDGE('',*,*,#300,.F.);
#273=CARTESIAN_POINT('',(30.0,-18.0,6.0));
#274=DIRECTION('',(-1.0,0.0,0.0));
#275=DIRECTION('',(0.0,0.0,1.0));
#276=EDGE_CURVE('',#312,#313,#314,.T.);
#277=EDGE_CURVE('',#315,#312,#316,.T.);
#278=EDGE_CURVE('',#317,#315,#318,.T.);
#279=EDGE_CURVE('',#313,#317,#319,.T.);
#280=EDGE_CURVE('',#320,#321,#322,.T.);
#281=EDGE_CURVE('',#323,#320,#324,.T.);
#282=EDGE_CURVE('',#325,#323,#326,.T.);
#283=EDGE_CURVE('',#321,#325,#327,.T.);
#284=EDGE_CURVE('',#328,#329,#330,.T.);
#285=EDGE_CURVE('',#331,#328,#332,.T.);
#286=EDGE_CURVE('',#333,#331,#334,.T.);
#287=EDGE_CURVE('',#329,#333,#335,.T.);
#288=EDGE_CURVE('',#336,#337,#338,.T.);
#289=EDGE_CURVE('',#339,#336,#340,.T.);
#290=EDGE_CURVE('',#341,#339,#342,.T.);
#291=EDGE_CURVE('',#337,#341,#343,.T.);
#292=EDGE_CURVE('',#341,#337,#344,.T.);
#293=EDGE_CURVE('',#336,#339,#345,.T.);
#294=EDGE_CURVE('',#333,#329,#346,.T.);
#295=EDGE_CURVE('',#328,#331,#347,.T.);
#296=EDGE_CURVE('',#325,#321,#348,.T.);
#297=EDGE_CURVE('',#320,#323,#349,.T.);
#298=EDGE_CURVE('',#317,#313,#350,.T.);
#299=EDGE_CURVE('',#312,#315,#351,.T.);
#300=EDGE_CURVE('',#352,#353,#354,.T.);
#301=EDGE_CURVE('',#353,#355,#356,.T.);
#302=EDGE_CURVE('',#355,#357,#358,.T.);
#303=EDGE_CURVE('',#357,#352,#359,.T.);
#304=EDGE_CURVE('',#360,#361,#362,.T.);
#305=EDGE_CURVE('',#361,#363,#364,.T.);
#306=EDGE_CURVE('',#363,#365,#366,.T.);
#307=EDGE_CURVE('',#365,#360,#367,.T.);
#308=EDGE_CURVE('',#357,#363,#368,.T.);
#309=EDGE_CURVE('',#352,#361,#369,.T.);
#310=EDGE_CURVE('',#355,#365,#370,.T.);
#311=EDGE_CURVE('',#353,#360,#371,.T.);
#312=VERTEX_POINT('',#372);
#313=VERTEX_POINT('',#373);
#314=LINE('',#374,#375);
#315=VERTEX_POINT('',#376);
#316=CIRCLE('',#377,2.75);
#317=VERTEX_POINT('',#378);
#318=LINE('',#379,#380);
#319=CIRCLE('',#381,2.75);
#320=VERTEX_POINT('',#382);
#321=VERTEX_POINT('',#383);
#322=LINE('',#384,#385);
#323=VERTEX_POINT('',#386);
#324=CIRCLE('',#387,2.75);
#325=VERTEX_POINT('',#388);
#326=LINE('',#389,#390);
#327=CIRCLE('',#391,2.75);
#328=VERTEX_POINT('',#392);
#329=VERTEX_POINT('',#393);
#330=LINE('',#394,#395);
#331=VERTEX_POINT('',#396);
#332=CIRCLE('',#397,2.9);
#333=VERTEX_POINT('',#398);
#334=LINE('',#399,#400);
#335=CIRCLE('',#401,2.9);
#336=VERTEX_POINT('',#402);
#337=VERTEX_POINT('',#403);
#338=LINE('',#404,#405);
#339=VERTEX_POINT('',#406);
#340=CIRCLE('',#407,2.9);
#341=VERTEX_POINT('',#408);
#342=LINE('',#409,#410);
#343=CIRCLE('',#411,2.9);
#344=CIRCLE('',#412,2.9);
#345=CIRCLE('',#413,2.9);
#346=CIRCLE('',#414,2.9);
#347=CIRCLE('',#415,2.9);
#348=CIRCLE('',#416,2.75);
#349=CIRCLE('',#417,2.75);
#350=CIRCLE('',#418,2.75);
#351=CIRCLE('',#419,2.75);
#352=VERTEX_POINT('',#420);
#353=VERTEX_POINT('',#421);
#354=LINE('',#422,#423);
#355=VERTEX_POINT('',#424);
#356=LINE('',#425,#426);
#357=VERTEX_POINT('',#427);
#358=LINE('',#428,#429);
#359=LINE('',#430,#431);
#360=VERTEX_POINT('',#432);
#361=VERTEX_POINT('',#433);
#362=LINE('',#434,#435);
#363=VERTEX_POINT('',#436);
#364=LINE('',#437,#438);
#365=VERTEX_POINT('',#439);
#366=LINE('',#440,#441);
#367=LINE('',#442,#443);
#368=LINE('',#444,#445);
#369=LINE('',#446,#447);
#370=LINE('',#448,#449);
#371=LINE('',#450,#451);
#372=CARTESIAN_POINT('',(-22.25,-12.0,6.0));
#373=CARTESIAN_POINT('',(-22.25,-24.0,6.0));
#374=CARTESIAN_POINT('',(-22.25,-18.0,6.0));
#375=VECTOR('',#452,1.0);
#376=CARTESIAN_POINT('',(-27.75,-12.0,6.0));
#377=AXIS2_PLACEMENT_3D('',#453,#454,#455);
#378=CARTESIAN_POINT('',(-27.75,-24.0,6.0));
#379=CARTESIAN_POINT('',(-27.75,-18.0,6.0));
#380=VECTOR('',#456,1.0);
#381=AXIS2_PLACEMENT_3D('',#457,#458,#459);
#382=CARTESIAN_POINT('',(27.75,-12.0,6.0));
#383=CARTESIAN_POINT('',(27.75,-24.0,6.0));
#384=CARTESIAN_POINT('',(27.75,-18.0,6.0));
#385=VECTOR('',#460,1.0);
#386=CARTESIAN_POINT('',(22.25,-12.0,6.0));
#387=AXIS2_PLACEMENT_3D('',#461,#462,#463);
#388=CARTESIAN_POINT('',(22.25,-24.0,6.0));
#389=CARTESIAN_POINT('',(22.25,-18.0,6.0));
#390=VECTOR('',#464,1.0);
#391=AXIS2_PLACEMENT_3D('',#465,#466,#467);
#392=CARTESIAN_POINT('',(-13.1,-18.0,12.0));
#393=CARTESIAN_POINT('',(-13.1,-18.0,0.0));
#394=CARTESIAN_POINT('',(-13.1,-18.0,6.0));
#395=VECTOR('',#468,1.0);
#396=CARTESIAN_POINT('',(-18.9,-18.0,12.0));
#397=AXIS2_PLACEMENT_3D('',#469,#470,#471);
#398=CARTESIAN_POINT('',(-18.9,-18.0,0.0));
#399=CARTESIAN_POINT('',(-18.9,-18.0,6.0));
#400=VECTOR('',#472,1.0);
#401=AXIS2_PLACEMENT_3D('',#473,#474,#475);
#402=CARTESIAN_POINT('',(18.9,-18.0,12.0));
#403=CARTESIAN_POINT('',(18.9,-18.0,0.0));
#404=CARTESIAN_POINT('',(18.9,-18.0,6.0));
#405=VECTOR('',#476,1.0);
#406=CARTESIAN_POINT('',(13.1,-18.0,12.0));
#407=AXIS2_PLACEMENT_3D('',#477,#478,#479);
#408=CARTESIAN_POINT('',(13.1,-18.0,0.0));
#409=CARTESIAN_POINT('',(13.1,-18.0,6.0));
#410=VECTOR('',#480,1.0);
#411=AXIS2_PLACEMENT_3D('',#481,#482,#483);
#412=AXIS2_PLACEMENT_3D('',#484,#485,#486);
#413=AXIS2_PLACEMENT_3D('',#487,#488,#489);
#414=AXIS2_PLACEMENT_3D('',#490,#491,#492);
#415=AXIS2_PLACEMENT_3D('',#493,#494,#495);
#416=AXIS2_PLACEMENT_3D('',#496,#497,#498);
#417=AXIS2_PLACEMENT_3D('',#499,#500,#501);
#418=AXIS2_PLACEMENT_3D('',#502,#503,#504);
#419=AXIS2_PLACEMENT_3D('',#505,#506,#507);
#420=CARTESIAN_POINT('',(30.0,-24.0,12.0));
#421=CARTESIAN_POINT('',(30.0,-12.0,12.0));
#422=CARTESIAN_POINT('',(30.0,-18.0,12.0));
#423=VECTOR('',#508,1.0);
#424=CARTESIAN_POINT('',(-30.0,-12.0,12.0));
#425=CARTESIAN_POINT('',(0.0,-12.0,12.0));
#426=VECTOR('',#509,1.0);
#427=CARTESIAN_POINT('',(-30.0,-24.0,12.0));
#428=CARTESIAN_POINT('',(-30.0,-18.0,12.0));
#429=VECTOR('',#510,1.0);
#430=CARTESIAN_POINT('',(0.0,-24.0,12.0));
#431=VECTOR('',#511,1.0);
#432=CARTESIAN_POINT('',(30.0,-12.0,0.0));
#433=CARTESIAN_POINT('',(30.0,-24.0,0.0));
#434=CARTESIAN_POINT('',(30.0,-18.0,0.0));
#435=VECTOR('',#512,1.0);
#436=CARTESIAN_POINT('',(-30.0,-24.0,0.0));
#437=CARTESIAN_POINT('',(0.0,-24.0,0.0));
#438=VECTOR('',#513,1.0);
#439=CARTESIAN_POINT('',(-30.0,-12.0,0.0));
#440=CARTESIAN_POINT('',(-30.0,-18.0,0.0));
#441=VECTOR('',#514,1.0);
#442=CARTESIAN_POINT('',(0.0,-12.0,0.0));
#443=VECTOR('',#515,1.0);
#444=CARTESIAN_POINT('',(-30.0,-24.0,6.0));
#445=VECTOR('',#516,1.0);
#446=CARTESIAN_POINT('',(30.0,-24.0,6.0));
#447=VECTOR('',#517,1.0);
#448=CARTESIAN_POINT('',(-30.0,-12.0,6.0));
#449=VECTOR('',#518,1.0);
#450=CARTESIAN_POINT('',(30.0,-12.0,6.0));
#451=VECTOR('',#519,1.0);
#452=DIRECTION('',(-0.0,-1.0,-0.0));
#453=CARTESIAN_POINT('',(-25.0,-12.0,6.0));
#454=DIRECTION('',(0.0,-1.0,0.0));
#455=DIRECTION('',(1.0,0.0,0.0));
#456=DIRECTION('',(-0.0,1.0,0.0));
#457=CARTESIAN_POINT('',(-25.0,-24.0,6.0));
#458=DIRECTION('',(-0.0,1.0,0.0));
#459=DIRECTION('',(1.0,0.0,0.0));
#460=DIRECTION('',(-0.0,-1.0,-0.0));
#461=CARTESIAN_POINT('',(25.0,-12.0,6.0));
#462=DIRECTION('',(0.0,-1.0,0.0));
#463=DIRECTION('',(1.0,0.0,0.0));
#464=DIRECTION('',(-0.0,1.0,0.0));
#465=CARTESIAN_POINT('',(25.0,-24.0,6.0));
#466=DIRECTION('',(-0.0,1.0,0.0));
#467=DIRECTION('',(1.0,0.0,0.0));
#468=DIRECTION('',(-0.0,-0.0,-1.0));
#469=CARTESIAN_POINT('',(-16.0,-18.0,12.0));
#470=DIRECTION('',(0.0,0.0,-1.0));
#471=DIRECTION('',(1.0,0.0,0.0));
#472=DIRECTION('',(-0.0,0.0,1.0));
#473=CARTESIAN_POINT('',(-16.0,-18.0,0.0));
#474=DIRECTION('',(0.0,0.0,1.0));
#475=DIRECTION('',(1.0,0.0,0.0));
#476=DIRECTION('',(-0.0,-0.0,-1.0));
#477=CARTESIAN_POINT('',(16.0,-18.0,12.0));
#478=DIRECTION('',(0.0,0.0,-1.0));
#479=DIRECTION('',(1.0,0.0,0.0));
#480=DIRECTION('',(-0.0,0.0,1.0));
#481=CARTESIAN_POINT('',(16.0,-18.0,0.0));
#482=DIRECTION('',(0.0,0.0,1.0));
#483=DIRECTION('',(1.0,0.0,0.0));
#484=CARTESIAN_POINT('',(16.0,-18.0,0.0));
#485=DIRECTION('',(0.0,0.0,1.0));
#486=DIRECTION('',(1.0,0.0,0.0));
#487=CARTESIAN_POINT('',(16.0,-18.0,12.0));
#488=DIRECTION('',(0.0,0.0,-1.0));
#489=DIRECTION('',(1.0,0.0,0.0));
#490=CARTESIAN_POINT('',(-16.0,-18.0,0.0));
#491=DIRECTION('',(0.0,0.0,1.0));
#492=DIRECTION('',(1.0,0.0,0.0));
#493=CARTESIAN_POINT('',(-16.0,-18.0,12.0));
#494=DIRECTION('',(0.0,0.0,-1.0));
#495=DIRECTION('',(1.0,0.0,0.0));
#496=CARTESIAN_POINT('',(25.0,-24.0,6.0));
#497=DIRECTION('',(-0.0,1.0,0.0));
#498=DIRECTION('',(1.0,0.0,0.0));
#499=CARTESIAN_POINT('',(25.0,-12.0,6.0));
#500=DIRECTION('',(0.0,-1.0,0.0));
#501=DIRECTION('',(1.0,0.0,0.0));
#502=CARTESIAN_POINT('',(-25.0,-24.0,6.0));
#503=DIRECTION('',(-0.0,1.0,0.0));
#504=DIRECTION('',(1.0,0.0,0.0));
#505=CARTESIAN_POINT('',(-25.0,-12.0,6.0));
#506=DIRECTION('',(0.0,-1.0,0.0));
#507=DIRECTION('',(1.0,0.0,0.0));
#508=DIRECTION('',(0.0,1.0,0.0));
#509=DIRECTION('',(-1.0,0.0,0.0));
#510=DIRECTION('',(0.0,-1.0,0.0));
#511=DIRECTION('',(1.0,0.0,0.0));
#512=DIRECTION('',(0.0,-1.0,0.0));
#513=DIRECTION('',(-1.0,0.0,0.0));
#514=DIRECTION('',(0.0,1.0,0.0));
#515=DIRECTION('',(1.0,0.0,0.0));
#516=DIRECTION('',(0.0,0.0,-1.0));
#517=DIRECTION('',(0.0,0.0,-1.0));
#518=DIRECTION('',(0.0,0.0,-1.0));
#519=DIRECTION('',(0.0,0.0,-1.0));
ENDSEC;
END-ISO-10303-21;
