ISO-10303-21;
HEADER;
FILE_DESCRIPTION(('STEP AP203'),'1');
FILE_NAME('equerre_mf-13020_20.stp','2018-10-24T12:00:29',('TraceParts'),('TraceParts S.A.'),'Spatial InterOp 3D',' ',' ');
FILE_SCHEMA(('CONFIG_CONTROL_DESIGN'));
ENDSEC;
DATA;
#1=DESIGN_CONTEXT('',#27,'design');
#2=APPLICATION_PROTOCOL_DEFINITION('INTERNATIONAL STANDARD','config_control_design',1994,#27);
#3=PRODUCT_CATEGORY_RELATIONSHIP('NONE','NONE',#28,#29);
#4=DATE_AND_TIME(#30,#31);
#5=DATE_TIME_ROLE('creation_date');
#6=DATE_TIME_ROLE('classification_date');
#7=PERSON_AND_ORGANIZATION_ROLE('creator');
#8=PERSON_AND_ORGANIZATION_ROLE('design_supplier');
#9=PERSON_AND_ORGANIZATION_ROLE('classification_officer');
#10=PERSON_AND_ORGANIZATION_ROLE('design_owner');
#11=APPROVAL_PERSON_ORGANIZATION(#32,#33,#34);
#12=APPROVAL_DATE_TIME(#4,#33);
#13=CC_DESIGN_APPROVAL(#33,(#35,#36,#37));
#14=CC_DESIGN_DATE_AND_TIME_ASSIGNMENT(#4,#5,(#37));
#15=CC_DESIGN_DATE_AND_TIME_ASSIGNMENT(#4,#6,(#35));
#16=CC_DESIGN_PERSON_AND_ORGANIZATION_ASSIGNMENT(#32,#10,(#38));
#17=CC_DESIGN_PERSON_AND_ORGANIZATION_ASSIGNMENT(#32,#7,(#37));
#18=CC_DESIGN_PERSON_AND_ORGANIZATION_ASSIGNMENT(#32,#7,(#36));
#19=CC_DESIGN_PERSON_AND_ORGANIZATION_ASSIGNMENT(#32,#8,(#36));
#20=CC_DESIGN_SECURITY_CLASSIFICATION(#35,(#36));
#21=CC_DESIGN_PERSON_AND_ORGANIZATION_ASSIGNMENT(#32,#9,(#35));
#22=SHAPE_DEFINITION_REPRESENTATION(#39,#40);
#23= (GEOMETRIC_REPRESENTATION_CONTEXT(3)GLOBAL_UNCERTAINTY_ASSIGNED_CONTEXT((#43))GLOBAL_UNIT_ASSIGNED_CONTEXT((#45,#46,#47))REPRESENTATION_CONTEXT('NONE','WORKSPACE'));
#27=APPLICATION_CONTEXT('CONFIGURATION CONTROLLED 3D DESIGNS OF MECHANICAL PARTS AND ASSEMBLIES');
#28=PRODUCT_CATEGORY('part','NONE');
#29=PRODUCT_RELATED_PRODUCT_CATEGORY('detail',' ',(#38));
#30=CALENDAR_DATE(2018,24,9);
#31=LOCAL_TIME(14,0,29.0,#49);
#32=PERSON_AND_ORGANIZATION(#50,#51);
#33=APPROVAL(#52,'SOLID MODEL');
#34=APPROVAL_ROLE('APPROVED');
#35=SECURITY_CLASSIFICATION('','',#53);
#36=PRODUCT_DEFINITION_FORMATION_WITH_SPECIFIED_SOURCE(' ','NONE',#38,.NOT_KNOWN.);
#37=PRODUCT_DEFINITION('','NONE',#36,#1);
#38=PRODUCT('1','','PART--DESC',(#54));
#39=PRODUCT_DEFINITION_SHAPE('NONE','NONE',#37);
#40=ADVANCED_BREP_SHAPE_REPRESENTATION('1',(#55,#56),#23);
#43=UNCERTAINTY_MEASURE_WITH_UNIT(LENGTH_MEASURE(1.0E-06),#45,'','');
#45= (CONVERSION_BASED_UNIT('MILLIMETRE',#59)LENGTH_UNIT()NAMED_UNIT(#62));
#46= (NAMED_UNIT(#64)PLANE_ANGLE_UNIT()SI_UNIT($,.RADIAN.));
#47= (NAMED_UNIT(#64)SOLID_ANGLE_UNIT()SI_UNIT($,.STERADIAN.));
#49=COORDINATED_UNIVERSAL_TIME_OFFSET(1,0,.AHEAD.);
#50=PERSON('','UNSPECIFIED',$,$,$,$);
#51=ORGANIZATION('UNSPECIFIED','UNSPECIFIED','UNSPECIFIED');
#52=APPROVAL_STATUS('approved');
#53=SECURITY_CLASSIFICATION_LEVEL('unclassified');
#54=MECHANICAL_CONTEXT('',#27,'mechanical');
#55=MANIFOLD_SOLID_BREP('1',#70);
#56=AXIS2_PLACEMENT_3D('',#71,#72,#73);
#59=LENGTH_MEASURE_WITH_UNIT(LENGTH_MEASURE(1.0),#74);
#62=DIMENSIONAL_EXPONENTS(1.0,0.0,0.0,0.0,0.0,0.0,0.0);
#64=DIMENSIONAL_EXPONENTS(0.0,0.0,0.0,0.0,0.0,0.0,0.0);
#70=CLOSED_SHELL('',(#75,#76,#77,#78,#79,#80,#81,#82,#83,#84,#85,#86,#87,#88,#89,#90,#91,#92,#93,#94));
#71=CARTESIAN_POINT('',(0.0,0.0,0.0));
#72=DIRECTION('',(0.0,0.0,1.0));
#73=DIRECTION('',(1.0,0.0,0.0));
#74= (NAMED_UNIT(#62)LENGTH_UNIT()SI_UNIT(.MILLI.,.METRE.));
#75=ADVANCED_FACE('',(#96),#97,.F.);
#76=ADVANCED_FACE('',(#98),#99,.F.);
#77=ADVANCED_FACE('',(#100),#101,.F.);
#78=ADVANCED_FACE('',(#102),#103,.F.);
#79=ADVANCED_FACE('',(#104),#105,.F.);
#80=ADVANCED_FACE('',(#106),#107,.F.);
#81=ADVANCED_FACE('',(#108),#109,.T.);
#82=ADVANCED_FACE('',(#110),#111,.T.);
#83=ADVANCED_FACE('',(#112),#113,.T.);
#84=ADVANCED_FACE('',(#114),#115,.T.);
#85=ADVANCED_FACE('',(#116),#117,.F.);
#86=ADVANCED_FACE('',(#118),#119,.T.);
#87=ADVANCED_FACE('',(#120),#121,.T.);
#88=ADVANCED_FACE('',(#122),#123,.T.);
#89=ADVANCED_FACE('',(#124,#125),#126,.T.);
#90=ADVANCED_FACE('',(#127,#128,#129),#130,.T.);
#91=ADVANCED_FACE('',(#131),#132,.F.);
#92=ADVANCED_FACE('',(#133,#134),#135,.T.);
#93=ADVANCED_FACE('',(#136),#137,.T.);
#94=ADVANCED_FACE('',(#138,#139,#140),#141,.T.);
#96=FACE_OUTER_BOUND('',#142,.T.);
#97=CYLINDRICAL_SURFACE('',#143,11.0);
#98=FACE_OUTER_BOUND('',#144,.T.);
#99=CYLINDRICAL_SURFACE('',#145,3.3);
#100=FACE_OUTER_BOUND('',#146,.T.);
#101=CYLINDRICAL_SURFACE('',#147,3.3);
#102=FACE_OUTER_BOUND('',#148,.T.);
#103=CYLINDRICAL_SURFACE('',#149,3.3);
#104=FACE_OUTER_BOUND('',#150,.T.);
#105=CYLINDRICAL_SURFACE('',#151,3.3);
#106=FACE_OUTER_BOUND('',#152,.T.);
#107=CYLINDRICAL_SURFACE('',#153,11.0);
#108=FACE_OUTER_BOUND('',#154,.T.);
#109=CYLINDRICAL_SURFACE('',#155,7.0);
#110=FACE_OUTER_BOUND('',#156,.T.);
#111=CYLINDRICAL_SURFACE('',#157,7.0);
#112=FACE_OUTER_BOUND('',#158,.T.);
#113=PLANE('',#159);
#114=FACE_OUTER_BOUND('',#160,.T.);
#115=PLANE('',#161);
#116=FACE_OUTER_BOUND('',#162,.T.);
#117=PLANE('',#163);
#118=FACE_OUTER_BOUND('',#164,.T.);
#119=CYLINDRICAL_SURFACE('',#165,20.0);
#120=FACE_OUTER_BOUND('',#166,.T.);
#121=PLANE('',#167);
#122=FACE_OUTER_BOUND('',#168,.T.);
#123=PLANE('',#169);
#124=FACE_BOUND('',#170,.T.);
#125=FACE_OUTER_BOUND('',#171,.T.);
#126=PLANE('',#172);
#127=FACE_BOUND('',#173,.T.);
#128=FACE_BOUND('',#174,.T.);
#129=FACE_OUTER_BOUND('',#175,.T.);
#130=PLANE('',#176);
#131=FACE_OUTER_BOUND('',#177,.T.);
#132=CYLINDRICAL_SURFACE('',#178,5.0);
#133=FACE_BOUND('',#179,.T.);
#134=FACE_OUTER_BOUND('',#180,.T.);
#135=PLANE('',#181);
#136=FACE_OUTER_BOUND('',#182,.T.);
#137=CYLINDRICAL_SURFACE('',#183,10.0);
#138=FACE_BOUND('',#184,.T.);
#139=FACE_BOUND('',#185,.T.);
#140=FACE_OUTER_BOUND('',#186,.T.);
#141=PLANE('',#187);
#142=EDGE_LOOP('',(#188,#189,#190,#191));
#143=AXIS2_PLACEMENT_3D('',#192,#193,#194);
#144=EDGE_LOOP('',(#195,#196,#197,#198));
#145=AXIS2_PLACEMENT_3D('',#199,#200,#201);
#146=EDGE_LOOP('',(#202,#203,#204,#205));
#147=AXIS2_PLACEMENT_3D('',#206,#207,#208);
#148=EDGE_LOOP('',(#209,#210,#211,#212));
#149=AXIS2_PLACEMENT_3D('',#213,#214,#215);
#150=EDGE_LOOP('',(#216,#217,#218,#219));
#151=AXIS2_PLACEMENT_3D('',#220,#221,#222);
#152=EDGE_LOOP('',(#223,#224,#225,#226));
#153=AXIS2_PLACEMENT_3D('',#227,#228,#229);
#154=EDGE_LOOP('',(#230,#231,#232,#233));
#155=AXIS2_PLACEMENT_3D('',#234,#235,#236);
#156=EDGE_LOOP('',(#237,#238,#239,#240));
#157=AXIS2_PLACEMENT_3D('',#241,#242,#243);
#158=EDGE_LOOP('',(#244,#245,#246,#247,#248));
#159=AXIS2_PLACEMENT_3D('',#249,#250,#251);
#160=EDGE_LOOP('',(#252,#253,#254,#255));
#161=AXIS2_PLACEMENT_3D('',#256,#257,#258);
#162=EDGE_LOOP('',(#259,#260,#261,#262,#263));
#163=AXIS2_PLACEMENT_3D('',#264,#265,#266);
#164=EDGE_LOOP('',(#267,#268,#269,#270));
#165=AXIS2_PLACEMENT_3D('',#271,#272,#273);
#166=EDGE_LOOP('',(#274,#275,#276,#277,#278,#279));
#167=AXIS2_PLACEMENT_3D('',#280,#281,#282);
#168=EDGE_LOOP('',(#283,#284,#285,#286,#287,#288));
#169=AXIS2_PLACEMENT_3D('',#289,#290,#291);
#170=EDGE_LOOP('',(#292,#293));
#171=EDGE_LOOP('',(#294,#295,#296,#297));
#172=AXIS2_PLACEMENT_3D('',#298,#299,#300);
#173=EDGE_LOOP('',(#301,#302));
#174=EDGE_LOOP('',(#303,#304));
#175=EDGE_LOOP('',(#305,#306,#307,#308,#309,#310));
#176=AXIS2_PLACEMENT_3D('',#311,#312,#313);
#177=EDGE_LOOP('',(#314,#315,#316,#317));
#178=AXIS2_PLACEMENT_3D('',#318,#319,#320);
#179=EDGE_LOOP('',(#321,#322));
#180=EDGE_LOOP('',(#323,#324,#325,#326));
#181=AXIS2_PLACEMENT_3D('',#327,#328,#329);
#182=EDGE_LOOP('',(#330,#331,#332,#333,#334,#335));
#183=AXIS2_PLACEMENT_3D('',#336,#337,#338);
#184=EDGE_LOOP('',(#339,#340));
#185=EDGE_LOOP('',(#341,#342));
#186=EDGE_LOOP('',(#343,#344,#345,#346,#347,#348));
#187=AXIS2_PLACEMENT_3D('',#349,#350,#351);
#188=ORIENTED_EDGE('',*,*,#352,.F.);
#189=ORIENTED_EDGE('',*,*,#353,.F.);
#190=ORIENTED_EDGE('',*,*,#354,.F.);
#191=ORIENTED_EDGE('',*,*,#355,.F.);
#192=CARTESIAN_POINT('',(0.0,0.0,2.5));
#193=DIRECTION('',(0.0,0.0,1.0));
#194=DIRECTION('',(1.0,0.0,0.0));
#195=ORIENTED_EDGE('',*,*,#356,.F.);
#196=ORIENTED_EDGE('',*,*,#357,.F.);
#197=ORIENTED_EDGE('',*,*,#358,.F.);
#198=ORIENTED_EDGE('',*,*,#359,.F.);
#199=CARTESIAN_POINT('',(-20.0,-22.5,17.0));
#200=DIRECTION('',(-0.0,1.0,0.0));
#201=DIRECTION('',(1.0,0.0,0.0));
#202=ORIENTED_EDGE('',*,*,#360,.F.);
#203=ORIENTED_EDGE('',*,*,#361,.F.);
#204=ORIENTED_EDGE('',*,*,#362,.F.);
#205=ORIENTED_EDGE('',*,*,#363,.F.);
#206=CARTESIAN_POINT('',(20.0,-22.5,17.0));
#207=DIRECTION('',(-0.0,1.0,0.0));
#208=DIRECTION('',(1.0,0.0,0.0));
#209=ORIENTED_EDGE('',*,*,#360,.T.);
#210=ORIENTED_EDGE('',*,*,#364,.F.);
#211=ORIENTED_EDGE('',*,*,#362,.T.);
#212=ORIENTED_EDGE('',*,*,#365,.F.);
#213=CARTESIAN_POINT('',(20.0,-22.5,17.0));
#214=DIRECTION('',(-0.0,1.0,0.0));
#215=DIRECTION('',(1.0,0.0,0.0));
#216=ORIENTED_EDGE('',*,*,#356,.T.);
#217=ORIENTED_EDGE('',*,*,#366,.F.);
#218=ORIENTED_EDGE('',*,*,#358,.T.);
#219=ORIENTED_EDGE('',*,*,#367,.F.);
#220=CARTESIAN_POINT('',(-20.0,-22.5,17.0));
#221=DIRECTION('',(-0.0,1.0,0.0));
#222=DIRECTION('',(1.0,0.0,0.0));
#223=ORIENTED_EDGE('',*,*,#352,.T.);
#224=ORIENTED_EDGE('',*,*,#368,.F.);
#225=ORIENTED_EDGE('',*,*,#354,.T.);
#226=ORIENTED_EDGE('',*,*,#369,.F.);
#227=CARTESIAN_POINT('',(0.0,0.0,2.5));
#228=DIRECTION('',(0.0,0.0,1.0));
#229=DIRECTION('',(1.0,0.0,0.0));
#230=ORIENTED_EDGE('',*,*,#370,.T.);
#231=ORIENTED_EDGE('',*,*,#371,.T.);
#232=ORIENTED_EDGE('',*,*,#372,.T.);
#233=ORIENTED_EDGE('',*,*,#373,.F.);
#234=CARTESIAN_POINT('',(20.0,20.0,18.0));
#235=DIRECTION('',(0.0,-1.0,6.12303176911189E-17));
#236=DIRECTION('',(1.0,0.0,0.0));
#237=ORIENTED_EDGE('',*,*,#374,.T.);
#238=ORIENTED_EDGE('',*,*,#375,.T.);
#239=ORIENTED_EDGE('',*,*,#376,.T.);
#240=ORIENTED_EDGE('',*,*,#377,.F.);
#241=CARTESIAN_POINT('',(-20.0,20.0,18.0));
#242=DIRECTION('',(0.0,-1.0,6.12303176911189E-17));
#243=DIRECTION('',(1.0,0.0,0.0));
#244=ORIENTED_EDGE('',*,*,#373,.T.);
#245=ORIENTED_EDGE('',*,*,#378,.F.);
#246=ORIENTED_EDGE('',*,*,#379,.F.);
#247=ORIENTED_EDGE('',*,*,#380,.F.);
#248=ORIENTED_EDGE('',*,*,#381,.F.);
#249=CARTESIAN_POINT('',(27.0,-7.39923909815616,7.11873324772394));
#250=DIRECTION('',(1.0,0.0,6.12303176911189E-17));
#251=DIRECTION('',(6.12303176911189E-17,0.0,-1.0));
#252=ORIENTED_EDGE('',*,*,#371,.F.);
#253=ORIENTED_EDGE('',*,*,#382,.F.);
#254=ORIENTED_EDGE('',*,*,#377,.T.);
#255=ORIENTED_EDGE('',*,*,#383,.T.);
#256=CARTESIAN_POINT('',(-27.0,-22.5,25.0));
#257=DIRECTION('',(-6.12303176911189E-17,0.0,1.0));
#258=DIRECTION('',(0.0,-1.0,0.0));
#259=ORIENTED_EDGE('',*,*,#375,.F.);
#260=ORIENTED_EDGE('',*,*,#384,.F.);
#261=ORIENTED_EDGE('',*,*,#385,.F.);
#262=ORIENTED_EDGE('',*,*,#386,.F.);
#263=ORIENTED_EDGE('',*,*,#387,.F.);
#264=CARTESIAN_POINT('',(-27.0,-7.39923909815616,7.11873324772394));
#265=DIRECTION('',(1.0,0.0,6.12303176911189E-17));
#266=DIRECTION('',(6.12303176911189E-17,0.0,-1.0));
#267=ORIENTED_EDGE('',*,*,#388,.T.);
#268=ORIENTED_EDGE('',*,*,#389,.T.);
#269=ORIENTED_EDGE('',*,*,#390,.T.);
#270=ORIENTED_EDGE('',*,*,#391,.F.);
#271=CARTESIAN_POINT('',(0.0,0.0,0.0));
#272=DIRECTION('',(0.0,0.0,1.0));
#273=DIRECTION('',(1.0,0.0,0.0));
#274=ORIENTED_EDGE('',*,*,#392,.T.);
#275=ORIENTED_EDGE('',*,*,#380,.T.);
#276=ORIENTED_EDGE('',*,*,#393,.T.);
#277=ORIENTED_EDGE('',*,*,#394,.T.);
#278=ORIENTED_EDGE('',*,*,#391,.T.);
#279=ORIENTED_EDGE('',*,*,#395,.T.);
#280=CARTESIAN_POINT('',(23.0659875996457,-7.0859167404783,0.0));
#281=DIRECTION('',(0.95659875996457,0.29140832595217,-0.0));
#282=DIRECTION('',(-0.29140832595217,0.95659875996457,0.0));
#283=ORIENTED_EDGE('',*,*,#396,.T.);
#284=ORIENTED_EDGE('',*,*,#389,.F.);
#285=ORIENTED_EDGE('',*,*,#397,.T.);
#286=ORIENTED_EDGE('',*,*,#398,.T.);
#287=ORIENTED_EDGE('',*,*,#385,.T.);
#288=ORIENTED_EDGE('',*,*,#399,.T.);
#289=CARTESIAN_POINT('',(-23.0659875996457,-7.0859167404783,0.0));
#290=DIRECTION('',(-0.95659875996457,0.29140832595217,0.0));
#291=DIRECTION('',(-0.29140832595217,-0.95659875996457,0.0));
#292=ORIENTED_EDGE('',*,*,#353,.T.);
#293=ORIENTED_EDGE('',*,*,#369,.T.);
#294=ORIENTED_EDGE('',*,*,#395,.F.);
#295=ORIENTED_EDGE('',*,*,#390,.F.);
#296=ORIENTED_EDGE('',*,*,#396,.F.);
#297=ORIENTED_EDGE('',*,*,#400,.T.);
#298=CARTESIAN_POINT('',(-27.0,2.5,5.0));
#299=DIRECTION('',(-6.12303176911189E-17,0.0,1.0));
#300=DIRECTION('',(0.0,-1.0,0.0));
#301=ORIENTED_EDGE('',*,*,#361,.T.);
#302=ORIENTED_EDGE('',*,*,#365,.T.);
#303=ORIENTED_EDGE('',*,*,#357,.T.);
#304=ORIENTED_EDGE('',*,*,#367,.T.);
#305=ORIENTED_EDGE('',*,*,#370,.F.);
#306=ORIENTED_EDGE('',*,*,#381,.T.);
#307=ORIENTED_EDGE('',*,*,#401,.F.);
#308=ORIENTED_EDGE('',*,*,#384,.T.);
#309=ORIENTED_EDGE('',*,*,#374,.F.);
#310=ORIENTED_EDGE('',*,*,#382,.T.);
#311=CARTESIAN_POINT('',(-27.0,-20.0,17.5));
#312=DIRECTION('',(0.0,1.0,0.0));
#313=DIRECTION('',(-6.12303176911189E-17,0.0,1.0));
#314=ORIENTED_EDGE('',*,*,#392,.F.);
#315=ORIENTED_EDGE('',*,*,#400,.F.);
#316=ORIENTED_EDGE('',*,*,#399,.F.);
#317=ORIENTED_EDGE('',*,*,#401,.T.);
#318=CARTESIAN_POINT('',(-27.0,-15.0,10.0));
#319=DIRECTION('',(1.0,0.0,6.12303176911189E-17));
#320=DIRECTION('',(6.12303176911189E-17,0.0,-1.0));
#321=ORIENTED_EDGE('',*,*,#368,.T.);
#322=ORIENTED_EDGE('',*,*,#355,.T.);
#323=ORIENTED_EDGE('',*,*,#394,.F.);
#324=ORIENTED_EDGE('',*,*,#402,.F.);
#325=ORIENTED_EDGE('',*,*,#397,.F.);
#326=ORIENTED_EDGE('',*,*,#388,.F.);
#327=CARTESIAN_POINT('',(-27.0,2.5,0.0));
#328=DIRECTION('',(6.12303176911189E-17,0.0,-1.0));
#329=DIRECTION('',(0.0,1.0,0.0));
#330=ORIENTED_EDGE('',*,*,#393,.F.);
#331=ORIENTED_EDGE('',*,*,#379,.T.);
#332=ORIENTED_EDGE('',*,*,#403,.F.);
#333=ORIENTED_EDGE('',*,*,#386,.T.);
#334=ORIENTED_EDGE('',*,*,#398,.F.);
#335=ORIENTED_EDGE('',*,*,#402,.T.);
#336=CARTESIAN_POINT('',(-27.0,-15.0,10.0));
#337=DIRECTION('',(1.0,0.0,6.12303176911189E-17));
#338=DIRECTION('',(6.12303176911189E-17,0.0,-1.0));
#339=ORIENTED_EDGE('',*,*,#364,.T.);
#340=ORIENTED_EDGE('',*,*,#363,.T.);
#341=ORIENTED_EDGE('',*,*,#366,.T.);
#342=ORIENTED_EDGE('',*,*,#359,.T.);
#343=ORIENTED_EDGE('',*,*,#372,.F.);
#344=ORIENTED_EDGE('',*,*,#383,.F.);
#345=ORIENTED_EDGE('',*,*,#376,.F.);
#346=ORIENTED_EDGE('',*,*,#387,.T.);
#347=ORIENTED_EDGE('',*,*,#403,.T.);
#348=ORIENTED_EDGE('',*,*,#378,.T.);
#349=CARTESIAN_POINT('',(-27.0,-25.0,17.5));
#350=DIRECTION('',(0.0,-1.0,0.0));
#351=DIRECTION('',(6.12303176911189E-17,0.0,-1.0));
#352=EDGE_CURVE('',#404,#405,#406,.T.);
#353=EDGE_CURVE('',#407,#404,#408,.T.);
#354=EDGE_CURVE('',#409,#407,#410,.T.);
#355=EDGE_CURVE('',#405,#409,#411,.T.);
#356=EDGE_CURVE('',#412,#413,#414,.T.);
#357=EDGE_CURVE('',#415,#412,#416,.T.);
#358=EDGE_CURVE('',#417,#415,#418,.T.);
#359=EDGE_CURVE('',#413,#417,#419,.T.);
#360=EDGE_CURVE('',#420,#421,#422,.T.);
#361=EDGE_CURVE('',#423,#420,#424,.T.);
#362=EDGE_CURVE('',#425,#423,#426,.T.);
#363=EDGE_CURVE('',#421,#425,#427,.T.);
#364=EDGE_CURVE('',#425,#421,#428,.T.);
#365=EDGE_CURVE('',#420,#423,#429,.T.);
#366=EDGE_CURVE('',#417,#413,#430,.T.);
#367=EDGE_CURVE('',#412,#415,#431,.T.);
#368=EDGE_CURVE('',#409,#405,#432,.T.);
#369=EDGE_CURVE('',#404,#407,#433,.T.);
#370=EDGE_CURVE('',#434,#435,#436,.T.);
#371=EDGE_CURVE('',#435,#437,#438,.T.);
#372=EDGE_CURVE('',#437,#439,#440,.T.);
#373=EDGE_CURVE('',#434,#439,#441,.T.);
#374=EDGE_CURVE('',#442,#443,#444,.T.);
#375=EDGE_CURVE('',#443,#445,#446,.T.);
#376=EDGE_CURVE('',#445,#447,#448,.T.);
#377=EDGE_CURVE('',#442,#447,#449,.T.);
#378=EDGE_CURVE('',#450,#439,#451,.T.);
#379=EDGE_CURVE('',#452,#450,#453,.T.);
#380=EDGE_CURVE('',#454,#452,#455,.T.);
#381=EDGE_CURVE('',#434,#454,#456,.T.);
#382=EDGE_CURVE('',#442,#435,#457,.T.);
#383=EDGE_CURVE('',#447,#437,#458,.T.);
#384=EDGE_CURVE('',#459,#443,#460,.T.);
#385=EDGE_CURVE('',#461,#459,#462,.T.);
#386=EDGE_CURVE('',#463,#461,#464,.T.);
#387=EDGE_CURVE('',#445,#463,#465,.T.);
#388=EDGE_CURVE('',#466,#467,#468,.T.);
#389=EDGE_CURVE('',#467,#469,#470,.T.);
#390=EDGE_CURVE('',#469,#471,#472,.T.);
#391=EDGE_CURVE('',#466,#471,#473,.T.);
#392=EDGE_CURVE('',#474,#454,#475,.T.);
#393=EDGE_CURVE('',#452,#476,#477,.T.);
#394=EDGE_CURVE('',#476,#466,#478,.T.);
#395=EDGE_CURVE('',#471,#474,#479,.T.);
#396=EDGE_CURVE('',#480,#469,#481,.T.);
#397=EDGE_CURVE('',#467,#482,#483,.T.);
#398=EDGE_CURVE('',#482,#461,#484,.T.);
#399=EDGE_CURVE('',#459,#480,#485,.T.);
#400=EDGE_CURVE('',#480,#474,#486,.T.);
#401=EDGE_CURVE('',#459,#454,#487,.T.);
#402=EDGE_CURVE('',#482,#476,#488,.T.);
#403=EDGE_CURVE('',#463,#450,#489,.T.);
#404=VERTEX_POINT('',#490);
#405=VERTEX_POINT('',#491);
#406=LINE('',#492,#493);
#407=VERTEX_POINT('',#494);
#408=CIRCLE('',#495,11.0);
#409=VERTEX_POINT('',#496);
#410=LINE('',#497,#498);
#411=CIRCLE('',#499,11.0);
#412=VERTEX_POINT('',#500);
#413=VERTEX_POINT('',#501);
#414=LINE('',#502,#503);
#415=VERTEX_POINT('',#504);
#416=CIRCLE('',#505,3.3);
#417=VERTEX_POINT('',#506);
#418=LINE('',#507,#508);
#419=CIRCLE('',#509,3.3);
#420=VERTEX_POINT('',#510);
#421=VERTEX_POINT('',#511);
#422=LINE('',#512,#513);
#423=VERTEX_POINT('',#514);
#424=CIRCLE('',#515,3.3);
#425=VERTEX_POINT('',#516);
#426=LINE('',#517,#518);
#427=CIRCLE('',#519,3.3);
#428=CIRCLE('',#520,3.3);
#429=CIRCLE('',#521,3.3);
#430=CIRCLE('',#522,3.3);
#431=CIRCLE('',#523,3.3);
#432=CIRCLE('',#524,11.0);
#433=CIRCLE('',#525,11.0);
#434=VERTEX_POINT('',#526);
#435=VERTEX_POINT('',#527);
#436=CIRCLE('',#528,7.0);
#437=VERTEX_POINT('',#529);
#438=LINE('',#530,#531);
#439=VERTEX_POINT('',#532);
#440=CIRCLE('',#533,7.0);
#441=LINE('',#534,#535);
#442=VERTEX_POINT('',#536);
#443=VERTEX_POINT('',#537);
#444=CIRCLE('',#538,7.0);
#445=VERTEX_POINT('',#539);
#446=LINE('',#540,#541);
#447=VERTEX_POINT('',#542);
#448=CIRCLE('',#543,7.0);
#449=LINE('',#544,#545);
#450=VERTEX_POINT('',#546);
#451=LINE('',#547,#548);
#452=VERTEX_POINT('',#549);
#453=CIRCLE('',#550,10.0);
#454=VERTEX_POINT('',#551);
#455=LINE('',#552,#553);
#456=LINE('',#554,#555);
#457=LINE('',#556,#557);
#458=LINE('',#558,#559);
#459=VERTEX_POINT('',#560);
#460=LINE('',#561,#562);
#461=VERTEX_POINT('',#563);
#462=LINE('',#564,#565);
#463=VERTEX_POINT('',#566);
#464=CIRCLE('',#567,10.0);
#465=LINE('',#568,#569);
#466=VERTEX_POINT('',#570);
#467=VERTEX_POINT('',#571);
#468=CIRCLE('',#572,20.0);
#469=VERTEX_POINT('',#573);
#470=LINE('',#574,#575);
#471=VERTEX_POINT('',#576);
#472=CIRCLE('',#577,20.0);
#473=LINE('',#578,#579);
#474=VERTEX_POINT('',#580);
#475=ELLIPSE('',#581,5.22685185185185,5.0);
#476=VERTEX_POINT('',#582);
#477=ELLIPSE('',#583,10.4537037037037,10.0);
#478=LINE('',#584,#585);
#479=LINE('',#586,#587);
#480=VERTEX_POINT('',#588);
#481=LINE('',#589,#590);
#482=VERTEX_POINT('',#591);
#483=LINE('',#592,#593);
#484=ELLIPSE('',#594,10.4537037037037,10.0);
#485=ELLIPSE('',#595,5.22685185185185,5.0);
#486=LINE('',#596,#597);
#487=LINE('',#598,#599);
#488=LINE('',#600,#601);
#489=LINE('',#602,#603);
#490=CARTESIAN_POINT('',(11.0,-1.34706698920461E-15,5.0));
#491=CARTESIAN_POINT('',(11.0,-1.34706698920461E-15,6.73533494602307E-16));
#492=CARTESIAN_POINT('',(11.0,-1.34706698920461E-15,2.5));
#493=VECTOR('',#604,1.0);
#494=CARTESIAN_POINT('',(-11.0,1.34706698920461E-15,5.0));
#495=AXIS2_PLACEMENT_3D('',#605,#606,#607);
#496=CARTESIAN_POINT('',(-11.0,-1.34706698920461E-15,0.0));
#497=CARTESIAN_POINT('',(-11.0,1.34706698920461E-15,2.5));
#498=VECTOR('',#608,1.0);
#499=AXIS2_PLACEMENT_3D('',#609,#610,#611);
#500=CARTESIAN_POINT('',(-16.7,-20.0,17.0));
#501=CARTESIAN_POINT('',(-16.7,-25.0,17.0));
#502=CARTESIAN_POINT('',(-16.7,-22.5,17.0));
#503=VECTOR('',#612,1.0);
#504=CARTESIAN_POINT('',(-23.3,-20.0,17.0));
#505=AXIS2_PLACEMENT_3D('',#613,#614,#615);
#506=CARTESIAN_POINT('',(-23.3,-25.0,17.0));
#507=CARTESIAN_POINT('',(-23.3,-22.5,17.0));
#508=VECTOR('',#616,1.0);
#509=AXIS2_PLACEMENT_3D('',#617,#618,#619);
#510=CARTESIAN_POINT('',(23.3,-20.0,17.0));
#511=CARTESIAN_POINT('',(23.3,-25.0,17.0));
#512=CARTESIAN_POINT('',(23.3,-22.5,17.0));
#513=VECTOR('',#620,1.0);
#514=CARTESIAN_POINT('',(16.7,-20.0,17.0));
#515=AXIS2_PLACEMENT_3D('',#621,#622,#623);
#516=CARTESIAN_POINT('',(16.7,-25.0,17.0));
#517=CARTESIAN_POINT('',(16.7,-22.5,17.0));
#518=VECTOR('',#624,1.0);
#519=AXIS2_PLACEMENT_3D('',#625,#626,#627);
#520=AXIS2_PLACEMENT_3D('',#628,#629,#630);
#521=AXIS2_PLACEMENT_3D('',#631,#632,#633);
#522=AXIS2_PLACEMENT_3D('',#634,#635,#636);
#523=AXIS2_PLACEMENT_3D('',#637,#638,#639);
#524=AXIS2_PLACEMENT_3D('',#640,#641,#642);
#525=AXIS2_PLACEMENT_3D('',#643,#644,#645);
#526=CARTESIAN_POINT('',(27.0,-20.0,18.0));
#527=CARTESIAN_POINT('',(20.0,-20.0,25.0));
#528=AXIS2_PLACEMENT_3D('',#646,#647,#648);
#529=CARTESIAN_POINT('',(20.0,-25.0,25.0));
#530=CARTESIAN_POINT('',(20.0,-22.5,25.0));
#531=VECTOR('',#649,1.0);
#532=CARTESIAN_POINT('',(27.0,-25.0,18.0));
#533=AXIS2_PLACEMENT_3D('',#650,#651,#652);
#534=CARTESIAN_POINT('',(27.0,-22.5,18.0));
#535=VECTOR('',#653,1.0);
#536=CARTESIAN_POINT('',(-20.0,-20.0,25.0));
#537=CARTESIAN_POINT('',(-27.0,-20.0,18.0));
#538=AXIS2_PLACEMENT_3D('',#654,#655,#656);
#539=CARTESIAN_POINT('',(-27.0,-25.0,18.0));
#540=CARTESIAN_POINT('',(-27.0,-22.5,18.0));
#541=VECTOR('',#657,1.0);
#542=CARTESIAN_POINT('',(-20.0,-25.0,25.0));
#543=AXIS2_PLACEMENT_3D('',#658,#659,#660);
#544=CARTESIAN_POINT('',(-20.0,-22.5,25.0));
#545=VECTOR('',#661,1.0);
#546=CARTESIAN_POINT('',(27.0,-25.0,10.0));
#547=CARTESIAN_POINT('',(27.0,-25.0,25.0));
#548=VECTOR('',#662,1.0);
#549=CARTESIAN_POINT('',(27.0,-20.0,1.33974596215562));
#550=AXIS2_PLACEMENT_3D('',#663,#664,#665);
#551=CARTESIAN_POINT('',(27.0,-20.0,10.0));
#552=CARTESIAN_POINT('',(27.0,-20.0,3.55936662386197));
#553=VECTOR('',#666,1.0);
#554=CARTESIAN_POINT('',(27.0,-20.0,10.0));
#555=VECTOR('',#667,1.0);
#556=CARTESIAN_POINT('',(-27.0,-20.0,25.0));
#557=VECTOR('',#668,1.0);
#558=CARTESIAN_POINT('',(-27.0,-25.0,25.0));
#559=VECTOR('',#669,1.0);
#560=CARTESIAN_POINT('',(-27.0,-20.0,10.0));
#561=CARTESIAN_POINT('',(-27.0,-20.0,10.0));
#562=VECTOR('',#670,1.0);
#563=CARTESIAN_POINT('',(-27.0,-20.0,1.33974596215561));
#564=CARTESIAN_POINT('',(-27.0,-20.0,3.55936662386197));
#565=VECTOR('',#671,1.0);
#566=CARTESIAN_POINT('',(-27.0,-25.0,10.0));
#567=AXIS2_PLACEMENT_3D('',#672,#673,#674);
#568=CARTESIAN_POINT('',(-27.0,-25.0,25.0));
#569=VECTOR('',#675,1.0);
#570=CARTESIAN_POINT('',(19.1319751992914,5.8281665190434,0.0));
#571=CARTESIAN_POINT('',(-19.1319751992914,5.8281665190434,0.0));
#572=AXIS2_PLACEMENT_3D('',#676,#677,#678);
#573=CARTESIAN_POINT('',(-19.1319751992914,5.8281665190434,5.0));
#574=CARTESIAN_POINT('',(-19.1319751992914,5.8281665190434,0.0));
#575=VECTOR('',#679,1.0);
#576=CARTESIAN_POINT('',(19.1319751992914,5.8281665190434,5.0));
#577=AXIS2_PLACEMENT_3D('',#680,#681,#682);
#578=CARTESIAN_POINT('',(19.1319751992914,5.8281665190434,0.0));
#579=VECTOR('',#683,1.0);
#580=CARTESIAN_POINT('',(25.4768518518519,-15.0,5.0));
#581=AXIS2_PLACEMENT_3D('',#684,#685,#686);
#582=CARTESIAN_POINT('',(25.4768518518519,-15.0,3.21317431031867E-15));
#583=AXIS2_PLACEMENT_3D('',#687,#688,#689);
#584=CARTESIAN_POINT('',(19.6041263775447,4.2782477576039,0.0));
#585=VECTOR('',#690,1.0);
#586=CARTESIAN_POINT('',(19.6041263775447,4.27824775760391,5.0));
#587=VECTOR('',#691,1.0);
#588=CARTESIAN_POINT('',(-25.4768518518519,-15.0,5.0));
#589=CARTESIAN_POINT('',(-21.8969343132694,-3.24829501012442,5.0));
#590=VECTOR('',#692,1.0);
#591=CARTESIAN_POINT('',(-25.4768518518519,-15.0,9.32628450017505E-17));
#592=CARTESIAN_POINT('',(-21.8969343132694,-3.24829501012442,0.0));
#593=VECTOR('',#693,1.0);
#594=AXIS2_PLACEMENT_3D('',#694,#695,#696);
#595=AXIS2_PLACEMENT_3D('',#697,#698,#699);
#596=CARTESIAN_POINT('',(-27.0,-15.0,5.0));
#597=VECTOR('',#700,1.0);
#598=CARTESIAN_POINT('',(-27.0,-20.0,10.0));
#599=VECTOR('',#701,1.0);
#600=CARTESIAN_POINT('',(-27.0,-15.0,0.0));
#601=VECTOR('',#702,1.0);
#602=CARTESIAN_POINT('',(-27.0,-25.0,10.0));
#603=VECTOR('',#703,1.0);
#604=DIRECTION('',(-0.0,0.0,-1.0));
#605=CARTESIAN_POINT('',(0.0,0.0,5.0));
#606=DIRECTION('',(6.12303176911189E-17,0.0,-1.0));
#607=DIRECTION('',(1.0,0.0,6.12303176911189E-17));
#608=DIRECTION('',(-0.0,0.0,1.0));
#609=CARTESIAN_POINT('',(0.0,0.0,0.0));
#610=DIRECTION('',(-6.12303176911189E-17,-0.0,1.0));
#611=DIRECTION('',(1.0,0.0,6.12303176911189E-17));
#612=DIRECTION('',(-0.0,-1.0,-0.0));
#613=CARTESIAN_POINT('',(-20.0,-20.0,17.0));
#614=DIRECTION('',(0.0,-1.0,0.0));
#615=DIRECTION('',(1.0,0.0,0.0));
#616=DIRECTION('',(-0.0,1.0,0.0));
#617=CARTESIAN_POINT('',(-20.0,-25.0,17.0));
#618=DIRECTION('',(-0.0,1.0,0.0));
#619=DIRECTION('',(1.0,0.0,0.0));
#620=DIRECTION('',(-0.0,-1.0,-0.0));
#621=CARTESIAN_POINT('',(20.0,-20.0,17.0));
#622=DIRECTION('',(0.0,-1.0,0.0));
#623=DIRECTION('',(1.0,0.0,0.0));
#624=DIRECTION('',(-0.0,1.0,0.0));
#625=CARTESIAN_POINT('',(20.0,-25.0,17.0));
#626=DIRECTION('',(-0.0,1.0,0.0));
#627=DIRECTION('',(1.0,0.0,0.0));
#628=CARTESIAN_POINT('',(20.0,-25.0,17.0));
#629=DIRECTION('',(-0.0,1.0,0.0));
#630=DIRECTION('',(1.0,0.0,0.0));
#631=CARTESIAN_POINT('',(20.0,-20.0,17.0));
#632=DIRECTION('',(0.0,-1.0,0.0));
#633=DIRECTION('',(1.0,0.0,0.0));
#634=CARTESIAN_POINT('',(-20.0,-25.0,17.0));
#635=DIRECTION('',(-0.0,1.0,0.0));
#636=DIRECTION('',(1.0,0.0,0.0));
#637=CARTESIAN_POINT('',(-20.0,-20.0,17.0));
#638=DIRECTION('',(0.0,-1.0,0.0));
#639=DIRECTION('',(1.0,0.0,0.0));
#640=CARTESIAN_POINT('',(0.0,0.0,0.0));
#641=DIRECTION('',(-6.12303176911189E-17,-0.0,1.0));
#642=DIRECTION('',(1.0,0.0,6.12303176911189E-17));
#643=CARTESIAN_POINT('',(0.0,0.0,5.0));
#644=DIRECTION('',(6.12303176911189E-17,0.0,-1.0));
#645=DIRECTION('',(1.0,0.0,6.12303176911189E-17));
#646=CARTESIAN_POINT('',(20.0,-20.0,18.0));
#647=DIRECTION('',(0.0,-1.0,0.0));
#648=DIRECTION('',(1.0,0.0,0.0));
#649=DIRECTION('',(0.0,-1.0,6.12303176911189E-17));
#650=CARTESIAN_POINT('',(20.0,-25.0,18.0));
#651=DIRECTION('',(-0.0,1.0,0.0));
#652=DIRECTION('',(1.0,0.0,0.0));
#653=DIRECTION('',(0.0,-1.0,6.12303176911189E-17));
#654=CARTESIAN_POINT('',(-20.0,-20.0,18.0));
#655=DIRECTION('',(0.0,-1.0,0.0));
#656=DIRECTION('',(1.0,0.0,0.0));
#657=DIRECTION('',(0.0,-1.0,6.12303176911189E-17));
#658=CARTESIAN_POINT('',(-20.0,-25.0,18.0));
#659=DIRECTION('',(-0.0,1.0,0.0));
#660=DIRECTION('',(1.0,0.0,0.0));
#661=DIRECTION('',(0.0,-1.0,6.12303176911189E-17));
#662=DIRECTION('',(-6.12303176911189E-17,0.0,1.0));
#663=CARTESIAN_POINT('',(27.0,-15.0,10.0));
#664=DIRECTION('',(-1.0,-0.0,-6.12303176911189E-17));
#665=DIRECTION('',(6.12303176911189E-17,0.0,-1.0));
#666=DIRECTION('',(6.12303176911189E-17,-2.00999219168415E-16,-1.0));
#667=DIRECTION('',(6.12303176911189E-17,0.0,-1.0));
#668=DIRECTION('',(1.0,0.0,6.12303176911189E-17));
#669=DIRECTION('',(1.0,0.0,6.12303176911189E-17));
#670=DIRECTION('',(-6.12303176911189E-17,0.0,1.0));
#671=DIRECTION('',(-6.12303176911189E-17,-2.00999219168415E-16,1.0));
#672=CARTESIAN_POINT('',(-27.0,-15.0,10.0));
#673=DIRECTION('',(1.0,0.0,6.12303176911189E-17));
#674=DIRECTION('',(6.12303176911189E-17,0.0,-1.0));
#675=DIRECTION('',(6.12303176911189E-17,0.0,-1.0));
#676=CARTESIAN_POINT('',(0.0,0.0,0.0));
#677=DIRECTION('',(-6.12303176911189E-17,-0.0,1.0));
#678=DIRECTION('',(1.0,0.0,6.12303176911189E-17));
#679=DIRECTION('',(0.0,0.0,1.0));
#680=CARTESIAN_POINT('',(0.0,0.0,5.0));
#681=DIRECTION('',(6.12303176911189E-17,0.0,-1.0));
#682=DIRECTION('',(1.0,0.0,6.12303176911189E-17));
#683=DIRECTION('',(0.0,0.0,1.0));
#684=CARTESIAN_POINT('',(25.4768518518519,-15.0,10.0));
#685=DIRECTION('',(-0.95659875996457,-0.29140832595217,0.0));
#686=DIRECTION('',(-0.29140832595217,0.95659875996457,-1.78430243758885E-17));
#687=CARTESIAN_POINT('',(25.4768518518519,-15.0,10.0));
#688=DIRECTION('',(0.95659875996457,0.29140832595217,0.0));
#689=DIRECTION('',(-0.29140832595217,0.95659875996457,-1.78430243758885E-17));
#690=DIRECTION('',(-0.29140832595217,0.95659875996457,-1.78430243758885E-17));
#691=DIRECTION('',(0.29140832595217,-0.95659875996457,1.78430243758885E-17));
#692=DIRECTION('',(0.29140832595217,0.95659875996457,1.78430243758885E-17));
#693=DIRECTION('',(-0.29140832595217,-0.95659875996457,-1.78430243758885E-17));
#694=CARTESIAN_POINT('',(-25.4768518518519,-15.0,10.0));
#695=DIRECTION('',(-0.95659875996457,0.29140832595217,0.0));
#696=DIRECTION('',(0.29140832595217,0.95659875996457,1.78430243758885E-17));
#697=CARTESIAN_POINT('',(-25.4768518518519,-15.0,10.0));
#698=DIRECTION('',(0.95659875996457,-0.29140832595217,0.0));
#699=DIRECTION('',(0.29140832595217,0.95659875996457,1.78430243758885E-17));
#700=DIRECTION('',(1.0,0.0,6.12303176911189E-17));
#701=DIRECTION('',(1.0,0.0,6.12303176911189E-17));
#702=DIRECTION('',(1.0,0.0,6.12303176911189E-17));
#703=DIRECTION('',(1.0,0.0,6.12303176911189E-17));
ENDSEC;
END-ISO-10303-21;
