ISO-10303-21;
HEADER;
FILE_DESCRIPTION(('STEP AP214'),'1');
FILE_NAME('equerre_mf-13008_8-10.stp','2017-05-23T07:26:38',('TraceParts'),('TraceParts S.A.'),'Spatial InterOp 3D',' ',' ');
FILE_SCHEMA(('automotive_design'));
ENDSEC;
DATA;
#1=PRODUCT_DEFINITION_CONTEXT('',#9,'design');
#2=APPLICATION_PROTOCOL_DEFINITION('INTERNATIONAL STANDARD','automotive_design',1994,#9);
#3=PRODUCT_CATEGORY_RELATIONSHIP('NONE','NONE',#10,#11);
#4=SHAPE_DEFINITION_REPRESENTATION(#12,#13);
#5= (GEOMETRIC_REPRESENTATION_CONTEXT(3)GLOBAL_UNCERTAINTY_ASSIGNED_CONTEXT((#16))GLOBAL_UNIT_ASSIGNED_CONTEXT((#18,#19,#20))REPRESENTATION_CONTEXT('NONE','WORKSPACE'));
#9=APPLICATION_CONTEXT(' ');
#10=PRODUCT_CATEGORY('part','NONE');
#11=PRODUCT_RELATED_PRODUCT_CATEGORY('detail',' ',(#22));
#12=PRODUCT_DEFINITION_SHAPE('NONE','NONE',#23);
#13=ADVANCED_BREP_SHAPE_REPRESENTATION('equerre_mf-13008_8-10',(#24,#25),#5);
#16=UNCERTAINTY_MEASURE_WITH_UNIT(LENGTH_MEASURE(1.0E-006),#18,'','');
#18= (CONVERSION_BASED_UNIT('MILLIMETRE',#28)LENGTH_UNIT()NAMED_UNIT(#31));
#19= (NAMED_UNIT(#33)PLANE_ANGLE_UNIT()SI_UNIT($,.RADIAN.));
#20= (NAMED_UNIT(#33)SOLID_ANGLE_UNIT()SI_UNIT($,.STERADIAN.));
#22=PRODUCT('equerre_mf-13008_8-10','equerre_mf-13008_8-10','PART-equerre_mf-13008_8-10-DESC',(#39));
#23=PRODUCT_DEFINITION('NONE','NONE',#40,#1);
#24=MANIFOLD_SOLID_BREP('equerre_mf-13008_8-10',#41);
#25=AXIS2_PLACEMENT_3D('',#42,#43,#44);
#28=LENGTH_MEASURE_WITH_UNIT(LENGTH_MEASURE(1.0),#45);
#31=DIMENSIONAL_EXPONENTS(1.0,0.0,0.0,0.0,0.0,0.0,0.0);
#33=DIMENSIONAL_EXPONENTS(0.0,0.0,0.0,0.0,0.0,0.0,0.0);
#39=PRODUCT_CONTEXT('',#9,'mechanical');
#40=PRODUCT_DEFINITION_FORMATION_WITH_SPECIFIED_SOURCE(' ','NONE',#22,.NOT_KNOWN.);
#41=CLOSED_SHELL('',(#46,#47,#48,#49,#50,#51,#52,#53,#54,#55,#56,#57,#58,#59,#60,#61,#62,#63,#64,#65));
#42=CARTESIAN_POINT('',(0.0,0.0,0.0));
#43=DIRECTION('',(0.0,0.0,1.0));
#44=DIRECTION('',(1.0,0.0,0.0));
#45= (NAMED_UNIT(#31)LENGTH_UNIT()SI_UNIT(.MILLI.,.METRE.));
#46=ADVANCED_FACE('',(#67),#68,.F.);
#47=ADVANCED_FACE('',(#69),#70,.F.);
#48=ADVANCED_FACE('',(#71),#72,.F.);
#49=ADVANCED_FACE('',(#73),#74,.F.);
#50=ADVANCED_FACE('',(#75),#76,.F.);
#51=ADVANCED_FACE('',(#77),#78,.F.);
#52=ADVANCED_FACE('',(#79),#80,.T.);
#53=ADVANCED_FACE('',(#81),#82,.T.);
#54=ADVANCED_FACE('',(#83),#84,.T.);
#55=ADVANCED_FACE('',(#85),#86,.T.);
#56=ADVANCED_FACE('',(#87),#88,.F.);
#57=ADVANCED_FACE('',(#89),#90,.T.);
#58=ADVANCED_FACE('',(#91),#92,.T.);
#59=ADVANCED_FACE('',(#93),#94,.T.);
#60=ADVANCED_FACE('',(#95,#96),#97,.T.);
#61=ADVANCED_FACE('',(#98,#99,#100),#101,.T.);
#62=ADVANCED_FACE('',(#102),#103,.F.);
#63=ADVANCED_FACE('',(#104,#105),#106,.T.);
#64=ADVANCED_FACE('',(#107),#108,.T.);
#65=ADVANCED_FACE('',(#109,#110,#111),#112,.T.);
#67=FACE_OUTER_BOUND('',#113,.T.);
#68=CYLINDRICAL_SURFACE('',#114,6.0);
#69=FACE_OUTER_BOUND('',#115,.T.);
#70=CYLINDRICAL_SURFACE('',#116,2.25);
#71=FACE_OUTER_BOUND('',#117,.T.);
#72=CYLINDRICAL_SURFACE('',#118,2.25);
#73=FACE_OUTER_BOUND('',#119,.T.);
#74=CYLINDRICAL_SURFACE('',#120,2.25);
#75=FACE_OUTER_BOUND('',#121,.T.);
#76=CYLINDRICAL_SURFACE('',#122,2.25);
#77=FACE_OUTER_BOUND('',#123,.T.);
#78=CYLINDRICAL_SURFACE('',#124,6.0);
#79=FACE_OUTER_BOUND('',#125,.T.);
#80=CYLINDRICAL_SURFACE('',#126,5.0);
#81=FACE_OUTER_BOUND('',#127,.T.);
#82=CYLINDRICAL_SURFACE('',#128,5.0);
#83=FACE_OUTER_BOUND('',#129,.T.);
#84=PLANE('',#130);
#85=FACE_OUTER_BOUND('',#131,.T.);
#86=PLANE('',#132);
#87=FACE_OUTER_BOUND('',#133,.T.);
#88=PLANE('',#134);
#89=FACE_OUTER_BOUND('',#135,.T.);
#90=CYLINDRICAL_SURFACE('',#136,10.0);
#91=FACE_OUTER_BOUND('',#137,.T.);
#92=PLANE('',#138);
#93=FACE_OUTER_BOUND('',#139,.T.);
#94=PLANE('',#140);
#95=FACE_BOUND('',#141,.T.);
#96=FACE_OUTER_BOUND('',#142,.T.);
#97=PLANE('',#143);
#98=FACE_BOUND('',#144,.T.);
#99=FACE_BOUND('',#145,.T.);
#100=FACE_OUTER_BOUND('',#146,.T.);
#101=PLANE('',#147);
#102=FACE_OUTER_BOUND('',#148,.T.);
#103=CYLINDRICAL_SURFACE('',#149,3.0);
#104=FACE_BOUND('',#150,.T.);
#105=FACE_OUTER_BOUND('',#151,.T.);
#106=PLANE('',#152);
#107=FACE_OUTER_BOUND('',#153,.T.);
#108=CYLINDRICAL_SURFACE('',#154,6.0);
#109=FACE_BOUND('',#155,.T.);
#110=FACE_BOUND('',#156,.T.);
#111=FACE_OUTER_BOUND('',#157,.T.);
#112=PLANE('',#158);
#113=EDGE_LOOP('',(#159,#160,#161,#162));
#114=AXIS2_PLACEMENT_3D('',#163,#164,#165);
#115=EDGE_LOOP('',(#166,#167,#168,#169));
#116=AXIS2_PLACEMENT_3D('',#170,#171,#172);
#117=EDGE_LOOP('',(#173,#174,#175,#176));
#118=AXIS2_PLACEMENT_3D('',#177,#178,#179);
#119=EDGE_LOOP('',(#180,#181,#182,#183));
#120=AXIS2_PLACEMENT_3D('',#184,#185,#186);
#121=EDGE_LOOP('',(#187,#188,#189,#190));
#122=AXIS2_PLACEMENT_3D('',#191,#192,#193);
#123=EDGE_LOOP('',(#194,#195,#196,#197));
#124=AXIS2_PLACEMENT_3D('',#198,#199,#200);
#125=EDGE_LOOP('',(#201,#202,#203,#204));
#126=AXIS2_PLACEMENT_3D('',#205,#206,#207);
#127=EDGE_LOOP('',(#208,#209,#210,#211));
#128=AXIS2_PLACEMENT_3D('',#212,#213,#214);
#129=EDGE_LOOP('',(#215,#216,#217,#218,#219));
#130=AXIS2_PLACEMENT_3D('',#220,#221,#222);
#131=EDGE_LOOP('',(#223,#224,#225,#226));
#132=AXIS2_PLACEMENT_3D('',#227,#228,#229);
#133=EDGE_LOOP('',(#230,#231,#232,#233,#234));
#134=AXIS2_PLACEMENT_3D('',#235,#236,#237);
#135=EDGE_LOOP('',(#238,#239,#240,#241));
#136=AXIS2_PLACEMENT_3D('',#242,#243,#244);
#137=EDGE_LOOP('',(#245,#246,#247,#248,#249,#250));
#138=AXIS2_PLACEMENT_3D('',#251,#252,#253);
#139=EDGE_LOOP('',(#254,#255,#256,#257,#258,#259));
#140=AXIS2_PLACEMENT_3D('',#260,#261,#262);
#141=EDGE_LOOP('',(#263,#264));
#142=EDGE_LOOP('',(#265,#266,#267,#268));
#143=AXIS2_PLACEMENT_3D('',#269,#270,#271);
#144=EDGE_LOOP('',(#272,#273));
#145=EDGE_LOOP('',(#274,#275));
#146=EDGE_LOOP('',(#276,#277,#278,#279,#280,#281));
#147=AXIS2_PLACEMENT_3D('',#282,#283,#284);
#148=EDGE_LOOP('',(#285,#286,#287,#288));
#149=AXIS2_PLACEMENT_3D('',#289,#290,#291);
#150=EDGE_LOOP('',(#292,#293));
#151=EDGE_LOOP('',(#294,#295,#296,#297));
#152=AXIS2_PLACEMENT_3D('',#298,#299,#300);
#153=EDGE_LOOP('',(#301,#302,#303,#304,#305,#306));
#154=AXIS2_PLACEMENT_3D('',#307,#308,#309);
#155=EDGE_LOOP('',(#310,#311));
#156=EDGE_LOOP('',(#312,#313));
#157=EDGE_LOOP('',(#314,#315,#316,#317,#318,#319));
#158=AXIS2_PLACEMENT_3D('',#320,#321,#322);
#159=ORIENTED_EDGE('',*,*,#323,.F.);
#160=ORIENTED_EDGE('',*,*,#324,.F.);
#161=ORIENTED_EDGE('',*,*,#325,.F.);
#162=ORIENTED_EDGE('',*,*,#326,.F.);
#163=CARTESIAN_POINT('',(0.0,0.0,1.5));
#164=DIRECTION('',(0.0,0.0,1.0));
#165=DIRECTION('',(1.0,0.0,0.0));
#166=ORIENTED_EDGE('',*,*,#327,.F.);
#167=ORIENTED_EDGE('',*,*,#328,.F.);
#168=ORIENTED_EDGE('',*,*,#329,.F.);
#169=ORIENTED_EDGE('',*,*,#330,.F.);
#170=CARTESIAN_POINT('',(-12.5,-14.5,11.0));
#171=DIRECTION('',(-0.0,1.0,0.0));
#172=DIRECTION('',(1.0,0.0,0.0));
#173=ORIENTED_EDGE('',*,*,#331,.F.);
#174=ORIENTED_EDGE('',*,*,#332,.F.);
#175=ORIENTED_EDGE('',*,*,#333,.F.);
#176=ORIENTED_EDGE('',*,*,#334,.F.);
#177=CARTESIAN_POINT('',(12.5,-14.5,11.0));
#178=DIRECTION('',(-0.0,1.0,0.0));
#179=DIRECTION('',(1.0,0.0,0.0));
#180=ORIENTED_EDGE('',*,*,#331,.T.);
#181=ORIENTED_EDGE('',*,*,#335,.F.);
#182=ORIENTED_EDGE('',*,*,#333,.T.);
#183=ORIENTED_EDGE('',*,*,#336,.F.);
#184=CARTESIAN_POINT('',(12.5,-14.5,11.0));
#185=DIRECTION('',(-0.0,1.0,0.0));
#186=DIRECTION('',(1.0,0.0,0.0));
#187=ORIENTED_EDGE('',*,*,#327,.T.);
#188=ORIENTED_EDGE('',*,*,#337,.F.);
#189=ORIENTED_EDGE('',*,*,#329,.T.);
#190=ORIENTED_EDGE('',*,*,#338,.F.);
#191=CARTESIAN_POINT('',(-12.5,-14.5,11.0));
#192=DIRECTION('',(-0.0,1.0,0.0));
#193=DIRECTION('',(1.0,0.0,0.0));
#194=ORIENTED_EDGE('',*,*,#323,.T.);
#195=ORIENTED_EDGE('',*,*,#339,.F.);
#196=ORIENTED_EDGE('',*,*,#325,.T.);
#197=ORIENTED_EDGE('',*,*,#340,.F.);
#198=CARTESIAN_POINT('',(0.0,0.0,1.5));
#199=DIRECTION('',(0.0,0.0,1.0));
#200=DIRECTION('',(1.0,0.0,0.0));
#201=ORIENTED_EDGE('',*,*,#341,.T.);
#202=ORIENTED_EDGE('',*,*,#342,.T.);
#203=ORIENTED_EDGE('',*,*,#343,.T.);
#204=ORIENTED_EDGE('',*,*,#344,.F.);
#205=CARTESIAN_POINT('',(12.5,10.0,11.0));
#206=DIRECTION('',(0.0,-1.0,6.12303176911189E-017));
#207=DIRECTION('',(1.0,0.0,0.0));
#208=ORIENTED_EDGE('',*,*,#345,.T.);
#209=ORIENTED_EDGE('',*,*,#346,.T.);
#210=ORIENTED_EDGE('',*,*,#347,.T.);
#211=ORIENTED_EDGE('',*,*,#348,.F.);
#212=CARTESIAN_POINT('',(-12.5,10.0,11.0));
#213=DIRECTION('',(0.0,-1.0,6.12303176911189E-017));
#214=DIRECTION('',(1.0,0.0,0.0));
#215=ORIENTED_EDGE('',*,*,#344,.T.);
#216=ORIENTED_EDGE('',*,*,#349,.F.);
#217=ORIENTED_EDGE('',*,*,#350,.F.);
#218=ORIENTED_EDGE('',*,*,#351,.F.);
#219=ORIENTED_EDGE('',*,*,#352,.F.);
#220=CARTESIAN_POINT('',(17.5,-6.10090948945126,4.65807668348879));
#221=DIRECTION('',(1.0,0.0,6.12303176911189E-017));
#222=DIRECTION('',(6.12303176911189E-017,0.0,-1.0));
#223=ORIENTED_EDGE('',*,*,#342,.F.);
#224=ORIENTED_EDGE('',*,*,#353,.F.);
#225=ORIENTED_EDGE('',*,*,#348,.T.);
#226=ORIENTED_EDGE('',*,*,#354,.T.);
#227=CARTESIAN_POINT('',(-17.5,-14.5,16.0));
#228=DIRECTION('',(-6.12303176911189E-017,0.0,1.0));
#229=DIRECTION('',(0.0,-1.0,0.0));
#230=ORIENTED_EDGE('',*,*,#346,.F.);
#231=ORIENTED_EDGE('',*,*,#355,.F.);
#232=ORIENTED_EDGE('',*,*,#356,.F.);
#233=ORIENTED_EDGE('',*,*,#357,.F.);
#234=ORIENTED_EDGE('',*,*,#358,.F.);
#235=CARTESIAN_POINT('',(-17.5,-6.10090948945126,4.65807668348879));
#236=DIRECTION('',(1.0,0.0,6.12303176911189E-017));
#237=DIRECTION('',(6.12303176911189E-017,0.0,-1.0));
#238=ORIENTED_EDGE('',*,*,#359,.T.);
#239=ORIENTED_EDGE('',*,*,#360,.T.);
#240=ORIENTED_EDGE('',*,*,#361,.T.);
#241=ORIENTED_EDGE('',*,*,#362,.F.);
#242=CARTESIAN_POINT('',(0.0,0.0,0.0));
#243=DIRECTION('',(0.0,0.0,1.0));
#244=DIRECTION('',(1.0,0.0,0.0));
#245=ORIENTED_EDGE('',*,*,#363,.T.);
#246=ORIENTED_EDGE('',*,*,#351,.T.);
#247=ORIENTED_EDGE('',*,*,#364,.T.);
#248=ORIENTED_EDGE('',*,*,#365,.T.);
#249=ORIENTED_EDGE('',*,*,#362,.T.);
#250=ORIENTED_EDGE('',*,*,#366,.T.);
#251=CARTESIAN_POINT('',(13.2405609485696,-4.30116795384867,0.0));
#252=DIRECTION('',(0.898112189713912,0.439766409230266,-0.0));
#253=DIRECTION('',(-0.439766409230266,0.898112189713912,0.0));
#254=ORIENTED_EDGE('',*,*,#367,.T.);
#255=ORIENTED_EDGE('',*,*,#360,.F.);
#256=ORIENTED_EDGE('',*,*,#368,.T.);
#257=ORIENTED_EDGE('',*,*,#369,.T.);
#258=ORIENTED_EDGE('',*,*,#356,.T.);
#259=ORIENTED_EDGE('',*,*,#370,.T.);
#260=CARTESIAN_POINT('',(-13.2405609485696,-4.30116795384867,0.0));
#261=DIRECTION('',(-0.898112189713912,0.439766409230266,0.0));
#262=DIRECTION('',(-0.439766409230266,-0.898112189713912,0.0));
#263=ORIENTED_EDGE('',*,*,#324,.T.);
#264=ORIENTED_EDGE('',*,*,#340,.T.);
#265=ORIENTED_EDGE('',*,*,#366,.F.);
#266=ORIENTED_EDGE('',*,*,#361,.F.);
#267=ORIENTED_EDGE('',*,*,#367,.F.);
#268=ORIENTED_EDGE('',*,*,#371,.T.);
#269=CARTESIAN_POINT('',(-17.5,0.0,3.0));
#270=DIRECTION('',(-6.12303176911189E-017,0.0,1.0));
#271=DIRECTION('',(0.0,-1.0,0.0));
#272=ORIENTED_EDGE('',*,*,#332,.T.);
#273=ORIENTED_EDGE('',*,*,#336,.T.);
#274=ORIENTED_EDGE('',*,*,#328,.T.);
#275=ORIENTED_EDGE('',*,*,#338,.T.);
#276=ORIENTED_EDGE('',*,*,#341,.F.);
#277=ORIENTED_EDGE('',*,*,#352,.T.);
#278=ORIENTED_EDGE('',*,*,#372,.F.);
#279=ORIENTED_EDGE('',*,*,#355,.T.);
#280=ORIENTED_EDGE('',*,*,#345,.F.);
#281=ORIENTED_EDGE('',*,*,#353,.T.);
#282=CARTESIAN_POINT('',(-17.5,-13.0,11.0));
#283=DIRECTION('',(0.0,1.0,0.0));
#284=DIRECTION('',(-6.12303176911189E-017,0.0,1.0));
#285=ORIENTED_EDGE('',*,*,#363,.F.);
#286=ORIENTED_EDGE('',*,*,#371,.F.);
#287=ORIENTED_EDGE('',*,*,#370,.F.);
#288=ORIENTED_EDGE('',*,*,#372,.T.);
#289=CARTESIAN_POINT('',(-17.5,-10.0,6.0));
#290=DIRECTION('',(1.0,0.0,6.12303176911189E-017));
#291=DIRECTION('',(6.12303176911189E-017,0.0,-1.0));
#292=ORIENTED_EDGE('',*,*,#339,.T.);
#293=ORIENTED_EDGE('',*,*,#326,.T.);
#294=ORIENTED_EDGE('',*,*,#365,.F.);
#295=ORIENTED_EDGE('',*,*,#373,.F.);
#296=ORIENTED_EDGE('',*,*,#368,.F.);
#297=ORIENTED_EDGE('',*,*,#359,.F.);
#298=CARTESIAN_POINT('',(-17.5,0.0,0.0));
#299=DIRECTION('',(6.12303176911189E-017,0.0,-1.0));
#300=DIRECTION('',(0.0,1.0,0.0));
#301=ORIENTED_EDGE('',*,*,#364,.F.);
#302=ORIENTED_EDGE('',*,*,#350,.T.);
#303=ORIENTED_EDGE('',*,*,#374,.F.);
#304=ORIENTED_EDGE('',*,*,#357,.T.);
#305=ORIENTED_EDGE('',*,*,#369,.F.);
#306=ORIENTED_EDGE('',*,*,#373,.T.);
#307=CARTESIAN_POINT('',(-17.5,-10.0,6.0));
#308=DIRECTION('',(1.0,0.0,6.12303176911189E-017));
#309=DIRECTION('',(6.12303176911189E-017,0.0,-1.0));
#310=ORIENTED_EDGE('',*,*,#335,.T.);
#311=ORIENTED_EDGE('',*,*,#334,.T.);
#312=ORIENTED_EDGE('',*,*,#337,.T.);
#313=ORIENTED_EDGE('',*,*,#330,.T.);
#314=ORIENTED_EDGE('',*,*,#343,.F.);
#315=ORIENTED_EDGE('',*,*,#354,.F.);
#316=ORIENTED_EDGE('',*,*,#347,.F.);
#317=ORIENTED_EDGE('',*,*,#358,.T.);
#318=ORIENTED_EDGE('',*,*,#374,.T.);
#319=ORIENTED_EDGE('',*,*,#349,.T.);
#320=CARTESIAN_POINT('',(-17.5,-16.0,11.0));
#321=DIRECTION('',(0.0,-1.0,0.0));
#322=DIRECTION('',(6.12303176911189E-017,0.0,-1.0));
#323=EDGE_CURVE('',#375,#376,#377,.T.);
#324=EDGE_CURVE('',#378,#375,#379,.T.);
#325=EDGE_CURVE('',#380,#378,#381,.T.);
#326=EDGE_CURVE('',#376,#380,#382,.T.);
#327=EDGE_CURVE('',#383,#384,#385,.T.);
#328=EDGE_CURVE('',#386,#383,#387,.T.);
#329=EDGE_CURVE('',#388,#386,#389,.T.);
#330=EDGE_CURVE('',#384,#388,#390,.T.);
#331=EDGE_CURVE('',#391,#392,#393,.T.);
#332=EDGE_CURVE('',#394,#391,#395,.T.);
#333=EDGE_CURVE('',#396,#394,#397,.T.);
#334=EDGE_CURVE('',#392,#396,#398,.T.);
#335=EDGE_CURVE('',#396,#392,#399,.T.);
#336=EDGE_CURVE('',#391,#394,#400,.T.);
#337=EDGE_CURVE('',#388,#384,#401,.T.);
#338=EDGE_CURVE('',#383,#386,#402,.T.);
#339=EDGE_CURVE('',#380,#376,#403,.T.);
#340=EDGE_CURVE('',#375,#378,#404,.T.);
#341=EDGE_CURVE('',#405,#406,#407,.T.);
#342=EDGE_CURVE('',#406,#408,#409,.T.);
#343=EDGE_CURVE('',#408,#410,#411,.T.);
#344=EDGE_CURVE('',#405,#410,#412,.T.);
#345=EDGE_CURVE('',#413,#414,#415,.T.);
#346=EDGE_CURVE('',#414,#416,#417,.T.);
#347=EDGE_CURVE('',#416,#418,#419,.T.);
#348=EDGE_CURVE('',#413,#418,#420,.T.);
#349=EDGE_CURVE('',#421,#410,#422,.T.);
#350=EDGE_CURVE('',#423,#421,#424,.T.);
#351=EDGE_CURVE('',#425,#423,#426,.T.);
#352=EDGE_CURVE('',#405,#425,#427,.T.);
#353=EDGE_CURVE('',#413,#406,#428,.T.);
#354=EDGE_CURVE('',#418,#408,#429,.T.);
#355=EDGE_CURVE('',#430,#414,#431,.T.);
#356=EDGE_CURVE('',#432,#430,#433,.T.);
#357=EDGE_CURVE('',#434,#432,#435,.T.);
#358=EDGE_CURVE('',#416,#434,#436,.T.);
#359=EDGE_CURVE('',#437,#438,#439,.T.);
#360=EDGE_CURVE('',#438,#440,#441,.T.);
#361=EDGE_CURVE('',#440,#442,#443,.T.);
#362=EDGE_CURVE('',#437,#442,#444,.T.);
#363=EDGE_CURVE('',#445,#425,#446,.T.);
#364=EDGE_CURVE('',#423,#447,#448,.T.);
#365=EDGE_CURVE('',#447,#437,#449,.T.);
#366=EDGE_CURVE('',#442,#445,#450,.T.);
#367=EDGE_CURVE('',#451,#440,#452,.T.);
#368=EDGE_CURVE('',#438,#453,#454,.T.);
#369=EDGE_CURVE('',#453,#432,#455,.T.);
#370=EDGE_CURVE('',#430,#451,#456,.T.);
#371=EDGE_CURVE('',#451,#445,#457,.T.);
#372=EDGE_CURVE('',#430,#425,#458,.T.);
#373=EDGE_CURVE('',#453,#447,#459,.T.);
#374=EDGE_CURVE('',#434,#421,#460,.T.);
#375=VERTEX_POINT('',#461);
#376=VERTEX_POINT('',#462);
#377=LINE('',#463,#464);
#378=VERTEX_POINT('',#465);
#379=CIRCLE('',#466,6.0);
#380=VERTEX_POINT('',#467);
#381=LINE('',#468,#469);
#382=CIRCLE('',#470,6.0);
#383=VERTEX_POINT('',#471);
#384=VERTEX_POINT('',#472);
#385=LINE('',#473,#474);
#386=VERTEX_POINT('',#475);
#387=CIRCLE('',#476,2.25);
#388=VERTEX_POINT('',#477);
#389=LINE('',#478,#479);
#390=CIRCLE('',#480,2.25);
#391=VERTEX_POINT('',#481);
#392=VERTEX_POINT('',#482);
#393=LINE('',#483,#484);
#394=VERTEX_POINT('',#485);
#395=CIRCLE('',#486,2.25);
#396=VERTEX_POINT('',#487);
#397=LINE('',#488,#489);
#398=CIRCLE('',#490,2.25);
#399=CIRCLE('',#491,2.25);
#400=CIRCLE('',#492,2.25);
#401=CIRCLE('',#493,2.25);
#402=CIRCLE('',#494,2.25);
#403=CIRCLE('',#495,6.0);
#404=CIRCLE('',#496,6.0);
#405=VERTEX_POINT('',#497);
#406=VERTEX_POINT('',#498);
#407=CIRCLE('',#499,5.0);
#408=VERTEX_POINT('',#500);
#409=LINE('',#501,#502);
#410=VERTEX_POINT('',#503);
#411=CIRCLE('',#504,5.0);
#412=LINE('',#505,#506);
#413=VERTEX_POINT('',#507);
#414=VERTEX_POINT('',#508);
#415=CIRCLE('',#509,5.0);
#416=VERTEX_POINT('',#510);
#417=LINE('',#511,#512);
#418=VERTEX_POINT('',#513);
#419=CIRCLE('',#514,5.0);
#420=LINE('',#515,#516);
#421=VERTEX_POINT('',#517);
#422=LINE('',#518,#519);
#423=VERTEX_POINT('',#520);
#424=CIRCLE('',#521,6.0);
#425=VERTEX_POINT('',#522);
#426=LINE('',#523,#524);
#427=LINE('',#525,#526);
#428=LINE('',#527,#528);
#429=LINE('',#529,#530);
#430=VERTEX_POINT('',#531);
#431=LINE('',#532,#533);
#432=VERTEX_POINT('',#534);
#433=LINE('',#535,#536);
#434=VERTEX_POINT('',#537);
#435=CIRCLE('',#538,6.0);
#436=LINE('',#539,#540);
#437=VERTEX_POINT('',#541);
#438=VERTEX_POINT('',#542);
#439=CIRCLE('',#543,10.0);
#440=VERTEX_POINT('',#544);
#441=LINE('',#545,#546);
#442=VERTEX_POINT('',#547);
#443=CIRCLE('',#548,10.0);
#444=LINE('',#549,#550);
#445=VERTEX_POINT('',#551);
#446=ELLIPSE('',#552,3.34033992006681,3.0);
#447=VERTEX_POINT('',#553);
#448=ELLIPSE('',#554,6.68067984013363,6.0);
#449=LINE('',#555,#556);
#450=LINE('',#557,#558);
#451=VERTEX_POINT('',#559);
#452=LINE('',#560,#561);
#453=VERTEX_POINT('',#562);
#454=LINE('',#563,#564);
#455=ELLIPSE('',#565,6.68067984013363,6.0);
#456=ELLIPSE('',#566,3.34033992006681,3.0);
#457=LINE('',#567,#568);
#458=LINE('',#569,#570);
#459=LINE('',#571,#572);
#460=LINE('',#573,#574);
#461=CARTESIAN_POINT('',(6.0,-7.34763812293426E-016,3.0));
#462=CARTESIAN_POINT('',(6.0,-7.34763812293426E-016,3.67381906146713E-016));
#463=CARTESIAN_POINT('',(6.0,-7.34763812293426E-016,1.5));
#464=VECTOR('',#575,1.0);
#465=CARTESIAN_POINT('',(-6.0,7.34763812293426E-016,3.0));
#466=AXIS2_PLACEMENT_3D('',#576,#577,#578);
#467=CARTESIAN_POINT('',(-6.0,-7.34763812293426E-016,0.0));
#468=CARTESIAN_POINT('',(-6.0,7.34763812293426E-016,1.5));
#469=VECTOR('',#579,1.0);
#470=AXIS2_PLACEMENT_3D('',#580,#581,#582);
#471=CARTESIAN_POINT('',(-10.25,-13.0,11.0));
#472=CARTESIAN_POINT('',(-10.25,-16.0,11.0));
#473=CARTESIAN_POINT('',(-10.25,-14.5,11.0));
#474=VECTOR('',#583,1.0);
#475=CARTESIAN_POINT('',(-14.75,-13.0,11.0));
#476=AXIS2_PLACEMENT_3D('',#584,#585,#586);
#477=CARTESIAN_POINT('',(-14.75,-16.0,11.0));
#478=CARTESIAN_POINT('',(-14.75,-14.5,11.0));
#479=VECTOR('',#587,1.0);
#480=AXIS2_PLACEMENT_3D('',#588,#589,#590);
#481=CARTESIAN_POINT('',(14.75,-13.0,11.0));
#482=CARTESIAN_POINT('',(14.75,-16.0,11.0));
#483=CARTESIAN_POINT('',(14.75,-14.5,11.0));
#484=VECTOR('',#591,1.0);
#485=CARTESIAN_POINT('',(10.25,-13.0,11.0));
#486=AXIS2_PLACEMENT_3D('',#592,#593,#594);
#487=CARTESIAN_POINT('',(10.25,-16.0,11.0));
#488=CARTESIAN_POINT('',(10.25,-14.5,11.0));
#489=VECTOR('',#595,1.0);
#490=AXIS2_PLACEMENT_3D('',#596,#597,#598);
#491=AXIS2_PLACEMENT_3D('',#599,#600,#601);
#492=AXIS2_PLACEMENT_3D('',#602,#603,#604);
#493=AXIS2_PLACEMENT_3D('',#605,#606,#607);
#494=AXIS2_PLACEMENT_3D('',#608,#609,#610);
#495=AXIS2_PLACEMENT_3D('',#611,#612,#613);
#496=AXIS2_PLACEMENT_3D('',#614,#615,#616);
#497=CARTESIAN_POINT('',(17.5,-13.0,11.0));
#498=CARTESIAN_POINT('',(12.5,-13.0,16.0));
#499=AXIS2_PLACEMENT_3D('',#617,#618,#619);
#500=CARTESIAN_POINT('',(12.5,-16.0,16.0));
#501=CARTESIAN_POINT('',(12.5,-14.5,16.0));
#502=VECTOR('',#620,1.0);
#503=CARTESIAN_POINT('',(17.5,-16.0,11.0));
#504=AXIS2_PLACEMENT_3D('',#621,#622,#623);
#505=CARTESIAN_POINT('',(17.5,-14.5,11.0));
#506=VECTOR('',#624,1.0);
#507=CARTESIAN_POINT('',(-12.5,-13.0,16.0));
#508=CARTESIAN_POINT('',(-17.5,-13.0,11.0));
#509=AXIS2_PLACEMENT_3D('',#625,#626,#627);
#510=CARTESIAN_POINT('',(-17.5,-16.0,11.0));
#511=CARTESIAN_POINT('',(-17.5,-14.5,11.0));
#512=VECTOR('',#628,1.0);
#513=CARTESIAN_POINT('',(-12.5,-16.0,16.0));
#514=AXIS2_PLACEMENT_3D('',#629,#630,#631);
#515=CARTESIAN_POINT('',(-12.5,-14.5,16.0));
#516=VECTOR('',#632,1.0);
#517=CARTESIAN_POINT('',(17.5,-16.0,6.0));
#518=CARTESIAN_POINT('',(17.5,-16.0,16.0));
#519=VECTOR('',#633,1.0);
#520=CARTESIAN_POINT('',(17.5,-13.0,0.80384757729337));
#521=AXIS2_PLACEMENT_3D('',#634,#635,#636);
#522=CARTESIAN_POINT('',(17.5,-13.0,6.0));
#523=CARTESIAN_POINT('',(17.5,-13.0,2.3290383417444));
#524=VECTOR('',#637,1.0);
#525=CARTESIAN_POINT('',(17.5,-13.0,6.0));
#526=VECTOR('',#638,1.0);
#527=CARTESIAN_POINT('',(-17.5,-13.0,16.0));
#528=VECTOR('',#639,1.0);
#529=CARTESIAN_POINT('',(-17.5,-16.0,16.0));
#530=VECTOR('',#640,1.0);
#531=CARTESIAN_POINT('',(-17.5,-13.0,6.0));
#532=CARTESIAN_POINT('',(-17.5,-13.0,6.0));
#533=VECTOR('',#641,1.0);
#534=CARTESIAN_POINT('',(-17.5,-13.0,0.803847577293368));
#535=CARTESIAN_POINT('',(-17.5,-13.0,2.32903834174439));
#536=VECTOR('',#642,1.0);
#537=CARTESIAN_POINT('',(-17.5,-16.0,6.0));
#538=AXIS2_PLACEMENT_3D('',#643,#644,#645);
#539=CARTESIAN_POINT('',(-17.5,-16.0,16.0));
#540=VECTOR('',#646,1.0);
#541=CARTESIAN_POINT('',(8.98112189713912,4.39766409230266,0.0));
#542=CARTESIAN_POINT('',(-8.98112189713912,4.39766409230266,0.0));
#543=AXIS2_PLACEMENT_3D('',#647,#648,#649);
#544=CARTESIAN_POINT('',(-8.98112189713912,4.39766409230266,3.0));
#545=CARTESIAN_POINT('',(-8.98112189713912,4.39766409230266,0.0));
#546=VECTOR('',#650,1.0);
#547=CARTESIAN_POINT('',(8.98112189713912,4.39766409230266,3.0));
#548=AXIS2_PLACEMENT_3D('',#651,#652,#653);
#549=CARTESIAN_POINT('',(8.98112189713912,4.39766409230266,0.0));
#550=VECTOR('',#654,1.0);
#551=CARTESIAN_POINT('',(16.0310307077437,-10.0,3.0));
#552=AXIS2_PLACEMENT_3D('',#655,#656,#657);
#553=CARTESIAN_POINT('',(16.0310307077437,-10.0,2.05311566274581E-015));
#554=AXIS2_PLACEMENT_3D('',#658,#659,#660);
#555=CARTESIAN_POINT('',(9.41863959434062,3.50414433084566,0.0));
#556=VECTOR('',#661,1.0);
#557=CARTESIAN_POINT('',(9.41863959434063,3.50414433084566,3.0));
#558=VECTOR('',#662,1.0);
#559=CARTESIAN_POINT('',(-16.0310307077437,-10.0,3.0));
#560=CARTESIAN_POINT('',(-12.8030432513681,-3.40764819239167,3.0));
#561=VECTOR('',#663,1.0);
#562=CARTESIAN_POINT('',(-16.0310307077437,-10.0,8.99454564433511E-017));
#563=CARTESIAN_POINT('',(-12.8030432513681,-3.40764819239167,0.0));
#564=VECTOR('',#664,1.0);
#565=AXIS2_PLACEMENT_3D('',#665,#666,#667);
#566=AXIS2_PLACEMENT_3D('',#668,#669,#670);
#567=CARTESIAN_POINT('',(-17.5,-10.0,3.0));
#568=VECTOR('',#671,1.0);
#569=CARTESIAN_POINT('',(-17.5,-13.0,6.0));
#570=VECTOR('',#672,1.0);
#571=CARTESIAN_POINT('',(-17.5,-10.0,0.0));
#572=VECTOR('',#673,1.0);
#573=CARTESIAN_POINT('',(-17.5,-16.0,6.0));
#574=VECTOR('',#674,1.0);
#575=DIRECTION('',(-0.0,0.0,-1.0));
#576=CARTESIAN_POINT('',(0.0,0.0,3.0));
#577=DIRECTION('',(6.12303176911189E-017,0.0,-1.0));
#578=DIRECTION('',(1.0,0.0,6.12303176911189E-017));
#579=DIRECTION('',(-0.0,0.0,1.0));
#580=CARTESIAN_POINT('',(0.0,0.0,0.0));
#581=DIRECTION('',(-6.12303176911189E-017,-0.0,1.0));
#582=DIRECTION('',(1.0,0.0,6.12303176911189E-017));
#583=DIRECTION('',(-0.0,-1.0,-0.0));
#584=CARTESIAN_POINT('',(-12.5,-13.0,11.0));
#585=DIRECTION('',(0.0,-1.0,0.0));
#586=DIRECTION('',(1.0,0.0,0.0));
#587=DIRECTION('',(-0.0,1.0,0.0));
#588=CARTESIAN_POINT('',(-12.5,-16.0,11.0));
#589=DIRECTION('',(-0.0,1.0,0.0));
#590=DIRECTION('',(1.0,0.0,0.0));
#591=DIRECTION('',(-0.0,-1.0,-0.0));
#592=CARTESIAN_POINT('',(12.5,-13.0,11.0));
#593=DIRECTION('',(0.0,-1.0,0.0));
#594=DIRECTION('',(1.0,0.0,0.0));
#595=DIRECTION('',(-0.0,1.0,0.0));
#596=CARTESIAN_POINT('',(12.5,-16.0,11.0));
#597=DIRECTION('',(-0.0,1.0,0.0));
#598=DIRECTION('',(1.0,0.0,0.0));
#599=CARTESIAN_POINT('',(12.5,-16.0,11.0));
#600=DIRECTION('',(-0.0,1.0,0.0));
#601=DIRECTION('',(1.0,0.0,0.0));
#602=CARTESIAN_POINT('',(12.5,-13.0,11.0));
#603=DIRECTION('',(0.0,-1.0,0.0));
#604=DIRECTION('',(1.0,0.0,0.0));
#605=CARTESIAN_POINT('',(-12.5,-16.0,11.0));
#606=DIRECTION('',(-0.0,1.0,0.0));
#607=DIRECTION('',(1.0,0.0,0.0));
#608=CARTESIAN_POINT('',(-12.5,-13.0,11.0));
#609=DIRECTION('',(0.0,-1.0,0.0));
#610=DIRECTION('',(1.0,0.0,0.0));
#611=CARTESIAN_POINT('',(0.0,0.0,0.0));
#612=DIRECTION('',(-6.12303176911189E-017,-0.0,1.0));
#613=DIRECTION('',(1.0,0.0,6.12303176911189E-017));
#614=CARTESIAN_POINT('',(0.0,0.0,3.0));
#615=DIRECTION('',(6.12303176911189E-017,0.0,-1.0));
#616=DIRECTION('',(1.0,0.0,6.12303176911189E-017));
#617=CARTESIAN_POINT('',(12.5,-13.0,11.0));
#618=DIRECTION('',(0.0,-1.0,0.0));
#619=DIRECTION('',(1.0,0.0,0.0));
#620=DIRECTION('',(0.0,-1.0,6.12303176911189E-017));
#621=CARTESIAN_POINT('',(12.5,-16.0,11.0));
#622=DIRECTION('',(-0.0,1.0,0.0));
#623=DIRECTION('',(1.0,0.0,0.0));
#624=DIRECTION('',(0.0,-1.0,6.12303176911189E-017));
#625=CARTESIAN_POINT('',(-12.5,-13.0,11.0));
#626=DIRECTION('',(0.0,-1.0,0.0));
#627=DIRECTION('',(1.0,0.0,0.0));
#628=DIRECTION('',(0.0,-1.0,6.12303176911189E-017));
#629=CARTESIAN_POINT('',(-12.5,-16.0,11.0));
#630=DIRECTION('',(-0.0,1.0,0.0));
#631=DIRECTION('',(1.0,0.0,0.0));
#632=DIRECTION('',(0.0,-1.0,6.12303176911189E-017));
#633=DIRECTION('',(-6.12303176911189E-017,0.0,1.0));
#634=CARTESIAN_POINT('',(17.5,-10.0,6.0));
#635=DIRECTION('',(-1.0,-0.0,-6.12303176911189E-017));
#636=DIRECTION('',(6.12303176911189E-017,0.0,-1.0));
#637=DIRECTION('',(6.12303176911189E-017,-1.25047510551573E-016,-1.0));
#638=DIRECTION('',(6.12303176911189E-017,0.0,-1.0));
#639=DIRECTION('',(1.0,0.0,6.12303176911189E-017));
#640=DIRECTION('',(1.0,0.0,6.12303176911189E-017));
#641=DIRECTION('',(-6.12303176911189E-017,0.0,1.0));
#642=DIRECTION('',(-6.12303176911189E-017,-1.25047510551573E-016,1.0));
#643=CARTESIAN_POINT('',(-17.5,-10.0,6.0));
#644=DIRECTION('',(1.0,0.0,6.12303176911189E-017));
#645=DIRECTION('',(6.12303176911189E-017,0.0,-1.0));
#646=DIRECTION('',(6.12303176911189E-017,0.0,-1.0));
#647=CARTESIAN_POINT('',(0.0,0.0,0.0));
#648=DIRECTION('',(-6.12303176911189E-017,-0.0,1.0));
#649=DIRECTION('',(1.0,0.0,6.12303176911189E-017));
#650=DIRECTION('',(0.0,0.0,1.0));
#651=CARTESIAN_POINT('',(0.0,0.0,3.0));
#652=DIRECTION('',(6.12303176911189E-017,0.0,-1.0));
#653=DIRECTION('',(1.0,0.0,6.12303176911189E-017));
#654=DIRECTION('',(0.0,0.0,1.0));
#655=CARTESIAN_POINT('',(16.0310307077437,-10.0,6.0));
#656=DIRECTION('',(-0.898112189713912,-0.439766409230266,0.0));
#657=DIRECTION('',(-0.439766409230266,0.898112189713912,-2.69270369470518E-017));
#658=CARTESIAN_POINT('',(16.0310307077437,-10.0,6.0));
#659=DIRECTION('',(0.898112189713912,0.439766409230266,0.0));
#660=DIRECTION('',(-0.439766409230266,0.898112189713912,-2.69270369470518E-017));
#661=DIRECTION('',(-0.439766409230266,0.898112189713912,-2.69270369470518E-017));
#662=DIRECTION('',(0.439766409230266,-0.898112189713912,2.69270369470518E-017));
#663=DIRECTION('',(0.439766409230266,0.898112189713912,2.69270369470518E-017));
#664=DIRECTION('',(-0.439766409230266,-0.898112189713912,-2.69270369470518E-017));
#665=CARTESIAN_POINT('',(-16.0310307077437,-10.0,6.0));
#666=DIRECTION('',(-0.898112189713912,0.439766409230266,0.0));
#667=DIRECTION('',(0.439766409230266,0.898112189713912,2.69270369470518E-017));
#668=CARTESIAN_POINT('',(-16.0310307077437,-10.0,6.0));
#669=DIRECTION('',(0.898112189713912,-0.439766409230266,0.0));
#670=DIRECTION('',(0.439766409230266,0.898112189713912,2.69270369470518E-017));
#671=DIRECTION('',(1.0,0.0,6.12303176911189E-017));
#672=DIRECTION('',(1.0,0.0,6.12303176911189E-017));
#673=DIRECTION('',(1.0,0.0,6.12303176911189E-017));
#674=DIRECTION('',(1.0,0.0,6.12303176911189E-017));
ENDSEC;
END-ISO-10303-21;
