ISO-10303-21;
HEADER;
FILE_DESCRIPTION(('STEP AP203'),'1');
FILE_NAME('plaque_mf-12012_12.stp','2018-10-24T12:04:53',('TraceParts'),('TraceParts S.A.'),'Spatial InterOp 3D',' ',' ');
FILE_SCHEMA(('CONFIG_CONTROL_DESIGN'));
ENDSEC;
DATA;
#1=DESIGN_CONTEXT('',#27,'design');
#2=APPLICATION_PROTOCOL_DEFINITION('INTERNATIONAL STANDARD','config_control_design',1994,#27);
#3=PRODUCT_CATEGORY_RELATIONSHIP('NONE','NONE',#28,#29);
#4=DATE_AND_TIME(#30,#31);
#5=DATE_TIME_ROLE('creation_date');
#6=DATE_TIME_ROLE('classification_date');
#7=PERSON_AND_ORGANIZATION_ROLE('creator');
#8=PERSON_AND_ORGANIZATION_ROLE('design_supplier');
#9=PERSON_AND_ORGANIZATION_ROLE('classification_officer');
#10=PERSON_AND_ORGANIZATION_ROLE('design_owner');
#11=APPROVAL_PERSON_ORGANIZATION(#32,#33,#34);
#12=APPROVAL_DATE_TIME(#4,#33);
#13=CC_DESIGN_APPROVAL(#33,(#35,#36,#37));
#14=CC_DESIGN_DATE_AND_TIME_ASSIGNMENT(#4,#5,(#37));
#15=CC_DESIGN_DATE_AND_TIME_ASSIGNMENT(#4,#6,(#35));
#16=CC_DESIGN_PERSON_AND_ORGANIZATION_ASSIGNMENT(#32,#10,(#38));
#17=CC_DESIGN_PERSON_AND_ORGANIZATION_ASSIGNMENT(#32,#7,(#37));
#18=CC_DESIGN_PERSON_AND_ORGANIZATION_ASSIGNMENT(#32,#7,(#36));
#19=CC_DESIGN_PERSON_AND_ORGANIZATION_ASSIGNMENT(#32,#8,(#36));
#20=CC_DESIGN_SECURITY_CLASSIFICATION(#35,(#36));
#21=CC_DESIGN_PERSON_AND_ORGANIZATION_ASSIGNMENT(#32,#9,(#35));
#22=SHAPE_DEFINITION_REPRESENTATION(#39,#40);
#23= (GEOMETRIC_REPRESENTATION_CONTEXT(3)GLOBAL_UNCERTAINTY_ASSIGNED_CONTEXT((#43))GLOBAL_UNIT_ASSIGNED_CONTEXT((#45,#46,#47))REPRESENTATION_CONTEXT('NONE','WORKSPACE'));
#27=APPLICATION_CONTEXT('CONFIGURATION CONTROLLED 3D DESIGNS OF MECHANICAL PARTS AND ASSEMBLIES');
#28=PRODUCT_CATEGORY('part','NONE');
#29=PRODUCT_RELATED_PRODUCT_CATEGORY('detail',' ',(#38));
#30=CALENDAR_DATE(2018,24,9);
#31=LOCAL_TIME(14,4,53.0,#49);
#32=PERSON_AND_ORGANIZATION(#50,#51);
#33=APPROVAL(#52,'SOLID MODEL');
#34=APPROVAL_ROLE('APPROVED');
#35=SECURITY_CLASSIFICATION('','',#53);
#36=PRODUCT_DEFINITION_FORMATION_WITH_SPECIFIED_SOURCE(' ','NONE',#38,.NOT_KNOWN.);
#37=PRODUCT_DEFINITION('','NONE',#36,#1);
#38=PRODUCT('1','','PART--DESC',(#54));
#39=PRODUCT_DEFINITION_SHAPE('NONE','NONE',#37);
#40=ADVANCED_BREP_SHAPE_REPRESENTATION('1',(#55,#56),#23);
#43=UNCERTAINTY_MEASURE_WITH_UNIT(LENGTH_MEASURE(1.0E-06),#45,'','');
#45= (CONVERSION_BASED_UNIT('MILLIMETRE',#59)LENGTH_UNIT()NAMED_UNIT(#62));
#46= (NAMED_UNIT(#64)PLANE_ANGLE_UNIT()SI_UNIT($,.RADIAN.));
#47= (NAMED_UNIT(#64)SOLID_ANGLE_UNIT()SI_UNIT($,.STERADIAN.));
#49=COORDINATED_UNIVERSAL_TIME_OFFSET(1,0,.AHEAD.);
#50=PERSON('','UNSPECIFIED',$,$,$,$);
#51=ORGANIZATION('UNSPECIFIED','UNSPECIFIED','UNSPECIFIED');
#52=APPROVAL_STATUS('approved');
#53=SECURITY_CLASSIFICATION_LEVEL('unclassified');
#54=MECHANICAL_CONTEXT('',#27,'mechanical');
#55=MANIFOLD_SOLID_BREP('1',#70);
#56=AXIS2_PLACEMENT_3D('',#71,#72,#73);
#59=LENGTH_MEASURE_WITH_UNIT(LENGTH_MEASURE(1.0),#74);
#62=DIMENSIONAL_EXPONENTS(1.0,0.0,0.0,0.0,0.0,0.0,0.0);
#64=DIMENSIONAL_EXPONENTS(0.0,0.0,0.0,0.0,0.0,0.0,0.0);
#70=CLOSED_SHELL('',(#75,#76,#77,#78,#79,#80,#81,#82,#83,#84,#85,#86,#87,#88,#89,#90,#91,#92));
#71=CARTESIAN_POINT('',(0.0,0.0,0.0));
#72=DIRECTION('',(0.0,0.0,1.0));
#73=DIRECTION('',(1.0,0.0,0.0));
#74= (NAMED_UNIT(#62)LENGTH_UNIT()SI_UNIT(.MILLI.,.METRE.));
#75=ADVANCED_FACE('',(#94),#95,.T.);
#76=ADVANCED_FACE('',(#96),#97,.T.);
#77=ADVANCED_FACE('',(#98),#99,.F.);
#78=ADVANCED_FACE('',(#100),#101,.F.);
#79=ADVANCED_FACE('',(#102),#103,.F.);
#80=ADVANCED_FACE('',(#104),#105,.F.);
#81=ADVANCED_FACE('',(#106),#107,.F.);
#82=ADVANCED_FACE('',(#108),#109,.F.);
#83=ADVANCED_FACE('',(#110),#111,.T.);
#84=ADVANCED_FACE('',(#112),#113,.T.);
#85=ADVANCED_FACE('',(#114),#115,.T.);
#86=ADVANCED_FACE('',(#116),#117,.T.);
#87=ADVANCED_FACE('',(#118),#119,.T.);
#88=ADVANCED_FACE('',(#120),#121,.T.);
#89=ADVANCED_FACE('',(#122),#123,.T.);
#90=ADVANCED_FACE('',(#124),#125,.T.);
#91=ADVANCED_FACE('',(#126,#127,#128,#129),#130,.T.);
#92=ADVANCED_FACE('',(#131,#132,#133,#134),#135,.F.);
#94=FACE_OUTER_BOUND('',#136,.T.);
#95=CYLINDRICAL_SURFACE('',#137,15.0);
#96=FACE_OUTER_BOUND('',#138,.T.);
#97=CYLINDRICAL_SURFACE('',#139,15.0);
#98=FACE_OUTER_BOUND('',#140,.T.);
#99=CYLINDRICAL_SURFACE('',#141,8.0);
#100=FACE_OUTER_BOUND('',#142,.T.);
#101=CYLINDRICAL_SURFACE('',#143,2.75);
#102=FACE_OUTER_BOUND('',#144,.T.);
#103=CYLINDRICAL_SURFACE('',#145,2.75);
#104=FACE_OUTER_BOUND('',#146,.T.);
#105=CYLINDRICAL_SURFACE('',#147,2.75);
#106=FACE_OUTER_BOUND('',#148,.T.);
#107=CYLINDRICAL_SURFACE('',#149,2.75);
#108=FACE_OUTER_BOUND('',#150,.T.);
#109=CYLINDRICAL_SURFACE('',#151,8.0);
#110=FACE_OUTER_BOUND('',#152,.T.);
#111=PLANE('',#153);
#112=FACE_OUTER_BOUND('',#154,.T.);
#113=CYLINDRICAL_SURFACE('',#155,6.5);
#114=FACE_OUTER_BOUND('',#156,.T.);
#115=PLANE('',#157);
#116=FACE_OUTER_BOUND('',#158,.T.);
#117=CYLINDRICAL_SURFACE('',#159,15.0);
#118=FACE_OUTER_BOUND('',#160,.T.);
#119=PLANE('',#161);
#120=FACE_OUTER_BOUND('',#162,.T.);
#121=CYLINDRICAL_SURFACE('',#163,6.5);
#122=FACE_OUTER_BOUND('',#164,.T.);
#123=PLANE('',#165);
#124=FACE_OUTER_BOUND('',#166,.T.);
#125=CYLINDRICAL_SURFACE('',#167,15.0);
#126=FACE_BOUND('',#168,.T.);
#127=FACE_BOUND('',#169,.T.);
#128=FACE_BOUND('',#170,.T.);
#129=FACE_OUTER_BOUND('',#171,.T.);
#130=PLANE('',#172);
#131=FACE_BOUND('',#173,.T.);
#132=FACE_BOUND('',#174,.T.);
#133=FACE_BOUND('',#175,.T.);
#134=FACE_OUTER_BOUND('',#176,.T.);
#135=PLANE('',#177);
#136=EDGE_LOOP('',(#178,#179,#180,#181));
#137=AXIS2_PLACEMENT_3D('',#182,#183,#184);
#138=EDGE_LOOP('',(#185,#186,#187,#188));
#139=AXIS2_PLACEMENT_3D('',#189,#190,#191);
#140=EDGE_LOOP('',(#192,#193,#194,#195));
#141=AXIS2_PLACEMENT_3D('',#196,#197,#198);
#142=EDGE_LOOP('',(#199,#200,#201,#202));
#143=AXIS2_PLACEMENT_3D('',#203,#204,#205);
#144=EDGE_LOOP('',(#206,#207,#208,#209));
#145=AXIS2_PLACEMENT_3D('',#210,#211,#212);
#146=EDGE_LOOP('',(#213,#214,#215,#216));
#147=AXIS2_PLACEMENT_3D('',#217,#218,#219);
#148=EDGE_LOOP('',(#220,#221,#222,#223));
#149=AXIS2_PLACEMENT_3D('',#224,#225,#226);
#150=EDGE_LOOP('',(#227,#228,#229,#230));
#151=AXIS2_PLACEMENT_3D('',#231,#232,#233);
#152=EDGE_LOOP('',(#234,#235,#236,#237));
#153=AXIS2_PLACEMENT_3D('',#238,#239,#240);
#154=EDGE_LOOP('',(#241,#242,#243,#244));
#155=AXIS2_PLACEMENT_3D('',#245,#246,#247);
#156=EDGE_LOOP('',(#248,#249,#250,#251));
#157=AXIS2_PLACEMENT_3D('',#252,#253,#254);
#158=EDGE_LOOP('',(#255,#256,#257,#258));
#159=AXIS2_PLACEMENT_3D('',#259,#260,#261);
#160=EDGE_LOOP('',(#262,#263,#264,#265));
#161=AXIS2_PLACEMENT_3D('',#266,#267,#268);
#162=EDGE_LOOP('',(#269,#270,#271,#272));
#163=AXIS2_PLACEMENT_3D('',#273,#274,#275);
#164=EDGE_LOOP('',(#276,#277,#278,#279));
#165=AXIS2_PLACEMENT_3D('',#280,#281,#282);
#166=EDGE_LOOP('',(#283,#284,#285,#286));
#167=AXIS2_PLACEMENT_3D('',#287,#288,#289);
#168=EDGE_LOOP('',(#290,#291));
#169=EDGE_LOOP('',(#292,#293));
#170=EDGE_LOOP('',(#294,#295));
#171=EDGE_LOOP('',(#296,#297,#298,#299,#300,#301,#302,#303,#304,#305));
#172=AXIS2_PLACEMENT_3D('',#306,#307,#308);
#173=EDGE_LOOP('',(#309,#310));
#174=EDGE_LOOP('',(#311,#312));
#175=EDGE_LOOP('',(#313,#314));
#176=EDGE_LOOP('',(#315,#316,#317,#318,#319,#320,#321,#322,#323,#324));
#177=AXIS2_PLACEMENT_3D('',#325,#326,#327);
#178=ORIENTED_EDGE('',*,*,#328,.F.);
#179=ORIENTED_EDGE('',*,*,#329,.T.);
#180=ORIENTED_EDGE('',*,*,#330,.F.);
#181=ORIENTED_EDGE('',*,*,#331,.T.);
#182=CARTESIAN_POINT('',(0.0,0.0,0.0));
#183=DIRECTION('',(0.0,0.0,1.0));
#184=DIRECTION('',(1.0,0.0,0.0));
#185=ORIENTED_EDGE('',*,*,#332,.F.);
#186=ORIENTED_EDGE('',*,*,#333,.T.);
#187=ORIENTED_EDGE('',*,*,#334,.T.);
#188=ORIENTED_EDGE('',*,*,#335,.T.);
#189=CARTESIAN_POINT('',(0.0,0.0,0.0));
#190=DIRECTION('',(0.0,0.0,1.0));
#191=DIRECTION('',(1.0,0.0,0.0));
#192=ORIENTED_EDGE('',*,*,#336,.F.);
#193=ORIENTED_EDGE('',*,*,#337,.F.);
#194=ORIENTED_EDGE('',*,*,#338,.F.);
#195=ORIENTED_EDGE('',*,*,#339,.F.);
#196=CARTESIAN_POINT('',(0.0,0.0,2.0));
#197=DIRECTION('',(0.0,0.0,1.0));
#198=DIRECTION('',(1.0,0.0,0.0));
#199=ORIENTED_EDGE('',*,*,#340,.F.);
#200=ORIENTED_EDGE('',*,*,#341,.F.);
#201=ORIENTED_EDGE('',*,*,#342,.F.);
#202=ORIENTED_EDGE('',*,*,#343,.F.);
#203=CARTESIAN_POINT('',(0.0,-20.0,2.0));
#204=DIRECTION('',(0.0,0.0,1.0));
#205=DIRECTION('',(1.0,0.0,0.0));
#206=ORIENTED_EDGE('',*,*,#344,.F.);
#207=ORIENTED_EDGE('',*,*,#345,.F.);
#208=ORIENTED_EDGE('',*,*,#346,.F.);
#209=ORIENTED_EDGE('',*,*,#347,.F.);
#210=CARTESIAN_POINT('',(0.0,20.0,2.0));
#211=DIRECTION('',(0.0,0.0,1.0));
#212=DIRECTION('',(1.0,0.0,0.0));
#213=ORIENTED_EDGE('',*,*,#344,.T.);
#214=ORIENTED_EDGE('',*,*,#348,.F.);
#215=ORIENTED_EDGE('',*,*,#346,.T.);
#216=ORIENTED_EDGE('',*,*,#349,.F.);
#217=CARTESIAN_POINT('',(0.0,20.0,2.0));
#218=DIRECTION('',(0.0,0.0,1.0));
#219=DIRECTION('',(1.0,0.0,0.0));
#220=ORIENTED_EDGE('',*,*,#340,.T.);
#221=ORIENTED_EDGE('',*,*,#350,.F.);
#222=ORIENTED_EDGE('',*,*,#342,.T.);
#223=ORIENTED_EDGE('',*,*,#351,.F.);
#224=CARTESIAN_POINT('',(0.0,-20.0,2.0));
#225=DIRECTION('',(0.0,0.0,1.0));
#226=DIRECTION('',(1.0,0.0,0.0));
#227=ORIENTED_EDGE('',*,*,#336,.T.);
#228=ORIENTED_EDGE('',*,*,#352,.F.);
#229=ORIENTED_EDGE('',*,*,#338,.T.);
#230=ORIENTED_EDGE('',*,*,#353,.F.);
#231=CARTESIAN_POINT('',(0.0,0.0,2.0));
#232=DIRECTION('',(0.0,0.0,1.0));
#233=DIRECTION('',(1.0,0.0,0.0));
#234=ORIENTED_EDGE('',*,*,#354,.T.);
#235=ORIENTED_EDGE('',*,*,#355,.F.);
#236=ORIENTED_EDGE('',*,*,#356,.T.);
#237=ORIENTED_EDGE('',*,*,#330,.T.);
#238=CARTESIAN_POINT('',(-9.73082850724952,14.56875,0.0));
#239=DIRECTION('',(-0.905193349511584,0.425,0.0));
#240=DIRECTION('',(-0.425,-0.905193349511584,0.0));
#241=ORIENTED_EDGE('',*,*,#357,.T.);
#242=ORIENTED_EDGE('',*,*,#358,.F.);
#243=ORIENTED_EDGE('',*,*,#359,.T.);
#244=ORIENTED_EDGE('',*,*,#355,.T.);
#245=CARTESIAN_POINT('',(0.0,20.0,0.0));
#246=DIRECTION('',(0.0,0.0,1.0));
#247=DIRECTION('',(1.0,0.0,0.0));
#248=ORIENTED_EDGE('',*,*,#360,.T.);
#249=ORIENTED_EDGE('',*,*,#334,.F.);
#250=ORIENTED_EDGE('',*,*,#361,.T.);
#251=ORIENTED_EDGE('',*,*,#358,.T.);
#252=CARTESIAN_POINT('',(9.73082850724952,14.56875,0.0));
#253=DIRECTION('',(0.905193349511584,0.425,-0.0));
#254=DIRECTION('',(-0.425,0.905193349511584,0.0));
#255=ORIENTED_EDGE('',*,*,#332,.T.);
#256=ORIENTED_EDGE('',*,*,#362,.T.);
#257=ORIENTED_EDGE('',*,*,#363,.F.);
#258=ORIENTED_EDGE('',*,*,#364,.T.);
#259=CARTESIAN_POINT('',(0.0,0.0,0.0));
#260=DIRECTION('',(0.0,0.0,1.0));
#261=DIRECTION('',(1.0,0.0,0.0));
#262=ORIENTED_EDGE('',*,*,#365,.T.);
#263=ORIENTED_EDGE('',*,*,#366,.F.);
#264=ORIENTED_EDGE('',*,*,#367,.T.);
#265=ORIENTED_EDGE('',*,*,#363,.T.);
#266=CARTESIAN_POINT('',(9.73082850724952,-14.56875,0.0));
#267=DIRECTION('',(0.905193349511584,-0.425,0.0));
#268=DIRECTION('',(0.425,0.905193349511584,0.0));
#269=ORIENTED_EDGE('',*,*,#368,.T.);
#270=ORIENTED_EDGE('',*,*,#369,.F.);
#271=ORIENTED_EDGE('',*,*,#370,.T.);
#272=ORIENTED_EDGE('',*,*,#366,.T.);
#273=CARTESIAN_POINT('',(0.0,-20.0,0.0));
#274=DIRECTION('',(0.0,0.0,1.0));
#275=DIRECTION('',(1.0,0.0,0.0));
#276=ORIENTED_EDGE('',*,*,#371,.T.);
#277=ORIENTED_EDGE('',*,*,#372,.F.);
#278=ORIENTED_EDGE('',*,*,#373,.T.);
#279=ORIENTED_EDGE('',*,*,#369,.T.);
#280=CARTESIAN_POINT('',(-9.73082850724952,-14.56875,0.0));
#281=DIRECTION('',(-0.905193349511584,-0.425,0.0));
#282=DIRECTION('',(0.425,-0.905193349511584,0.0));
#283=ORIENTED_EDGE('',*,*,#328,.T.);
#284=ORIENTED_EDGE('',*,*,#374,.T.);
#285=ORIENTED_EDGE('',*,*,#372,.T.);
#286=ORIENTED_EDGE('',*,*,#375,.T.);
#287=CARTESIAN_POINT('',(0.0,0.0,0.0));
#288=DIRECTION('',(0.0,0.0,1.0));
#289=DIRECTION('',(1.0,0.0,0.0));
#290=ORIENTED_EDGE('',*,*,#345,.T.);
#291=ORIENTED_EDGE('',*,*,#349,.T.);
#292=ORIENTED_EDGE('',*,*,#341,.T.);
#293=ORIENTED_EDGE('',*,*,#351,.T.);
#294=ORIENTED_EDGE('',*,*,#337,.T.);
#295=ORIENTED_EDGE('',*,*,#353,.T.);
#296=ORIENTED_EDGE('',*,*,#354,.F.);
#297=ORIENTED_EDGE('',*,*,#329,.F.);
#298=ORIENTED_EDGE('',*,*,#375,.F.);
#299=ORIENTED_EDGE('',*,*,#371,.F.);
#300=ORIENTED_EDGE('',*,*,#368,.F.);
#301=ORIENTED_EDGE('',*,*,#365,.F.);
#302=ORIENTED_EDGE('',*,*,#362,.F.);
#303=ORIENTED_EDGE('',*,*,#335,.F.);
#304=ORIENTED_EDGE('',*,*,#360,.F.);
#305=ORIENTED_EDGE('',*,*,#357,.F.);
#306=CARTESIAN_POINT('',(0.0,-4.44089209850063E-16,4.0));
#307=DIRECTION('',(0.0,0.0,1.0));
#308=DIRECTION('',(1.0,0.0,0.0));
#309=ORIENTED_EDGE('',*,*,#348,.T.);
#310=ORIENTED_EDGE('',*,*,#347,.T.);
#311=ORIENTED_EDGE('',*,*,#350,.T.);
#312=ORIENTED_EDGE('',*,*,#343,.T.);
#313=ORIENTED_EDGE('',*,*,#352,.T.);
#314=ORIENTED_EDGE('',*,*,#339,.T.);
#315=ORIENTED_EDGE('',*,*,#331,.F.);
#316=ORIENTED_EDGE('',*,*,#356,.F.);
#317=ORIENTED_EDGE('',*,*,#359,.F.);
#318=ORIENTED_EDGE('',*,*,#361,.F.);
#319=ORIENTED_EDGE('',*,*,#333,.F.);
#320=ORIENTED_EDGE('',*,*,#364,.F.);
#321=ORIENTED_EDGE('',*,*,#367,.F.);
#322=ORIENTED_EDGE('',*,*,#370,.F.);
#323=ORIENTED_EDGE('',*,*,#373,.F.);
#324=ORIENTED_EDGE('',*,*,#374,.F.);
#325=CARTESIAN_POINT('',(0.0,-4.44089209850063E-16,0.0));
#326=DIRECTION('',(0.0,0.0,1.0));
#327=DIRECTION('',(1.0,0.0,0.0));
#328=EDGE_CURVE('',#376,#377,#378,.T.);
#329=EDGE_CURVE('',#376,#379,#380,.T.);
#330=EDGE_CURVE('',#381,#379,#382,.T.);
#331=EDGE_CURVE('',#381,#377,#383,.T.);
#332=EDGE_CURVE('',#384,#385,#386,.T.);
#333=EDGE_CURVE('',#384,#387,#388,.T.);
#334=EDGE_CURVE('',#387,#389,#390,.T.);
#335=EDGE_CURVE('',#389,#385,#391,.T.);
#336=EDGE_CURVE('',#392,#393,#394,.T.);
#337=EDGE_CURVE('',#395,#392,#396,.T.);
#338=EDGE_CURVE('',#397,#395,#398,.T.);
#339=EDGE_CURVE('',#393,#397,#399,.T.);
#340=EDGE_CURVE('',#400,#401,#402,.T.);
#341=EDGE_CURVE('',#403,#400,#404,.T.);
#342=EDGE_CURVE('',#405,#403,#406,.T.);
#343=EDGE_CURVE('',#401,#405,#407,.T.);
#344=EDGE_CURVE('',#408,#409,#410,.T.);
#345=EDGE_CURVE('',#411,#408,#412,.T.);
#346=EDGE_CURVE('',#413,#411,#414,.T.);
#347=EDGE_CURVE('',#409,#413,#415,.T.);
#348=EDGE_CURVE('',#413,#409,#416,.T.);
#349=EDGE_CURVE('',#408,#411,#417,.T.);
#350=EDGE_CURVE('',#405,#401,#418,.T.);
#351=EDGE_CURVE('',#400,#403,#419,.T.);
#352=EDGE_CURVE('',#397,#393,#420,.T.);
#353=EDGE_CURVE('',#392,#395,#421,.T.);
#354=EDGE_CURVE('',#379,#422,#423,.T.);
#355=EDGE_CURVE('',#424,#422,#425,.T.);
#356=EDGE_CURVE('',#424,#381,#426,.T.);
#357=EDGE_CURVE('',#422,#427,#428,.T.);
#358=EDGE_CURVE('',#429,#427,#430,.T.);
#359=EDGE_CURVE('',#429,#424,#431,.T.);
#360=EDGE_CURVE('',#427,#389,#432,.T.);
#361=EDGE_CURVE('',#387,#429,#433,.T.);
#362=EDGE_CURVE('',#385,#434,#435,.T.);
#363=EDGE_CURVE('',#436,#434,#437,.T.);
#364=EDGE_CURVE('',#436,#384,#438,.T.);
#365=EDGE_CURVE('',#434,#439,#440,.T.);
#366=EDGE_CURVE('',#441,#439,#442,.T.);
#367=EDGE_CURVE('',#441,#436,#443,.T.);
#368=EDGE_CURVE('',#439,#444,#445,.T.);
#369=EDGE_CURVE('',#446,#444,#447,.T.);
#370=EDGE_CURVE('',#446,#441,#448,.T.);
#371=EDGE_CURVE('',#444,#449,#450,.T.);
#372=EDGE_CURVE('',#451,#449,#452,.T.);
#373=EDGE_CURVE('',#451,#446,#453,.T.);
#374=EDGE_CURVE('',#377,#451,#454,.T.);
#375=EDGE_CURVE('',#449,#376,#455,.T.);
#376=VERTEX_POINT('',#456);
#377=VERTEX_POINT('',#457);
#378=LINE('',#458,#459);
#379=VERTEX_POINT('',#460);
#380=CIRCLE('',#461,15.0);
#381=VERTEX_POINT('',#462);
#382=LINE('',#463,#464);
#383=CIRCLE('',#465,15.0);
#384=VERTEX_POINT('',#466);
#385=VERTEX_POINT('',#467);
#386=LINE('',#468,#469);
#387=VERTEX_POINT('',#470);
#388=CIRCLE('',#471,15.0);
#389=VERTEX_POINT('',#472);
#390=LINE('',#473,#474);
#391=CIRCLE('',#475,15.0);
#392=VERTEX_POINT('',#476);
#393=VERTEX_POINT('',#477);
#394=LINE('',#478,#479);
#395=VERTEX_POINT('',#480);
#396=CIRCLE('',#481,8.0);
#397=VERTEX_POINT('',#482);
#398=LINE('',#483,#484);
#399=CIRCLE('',#485,8.0);
#400=VERTEX_POINT('',#486);
#401=VERTEX_POINT('',#487);
#402=LINE('',#488,#489);
#403=VERTEX_POINT('',#490);
#404=CIRCLE('',#491,2.75);
#405=VERTEX_POINT('',#492);
#406=LINE('',#493,#494);
#407=CIRCLE('',#495,2.75);
#408=VERTEX_POINT('',#496);
#409=VERTEX_POINT('',#497);
#410=LINE('',#498,#499);
#411=VERTEX_POINT('',#500);
#412=CIRCLE('',#501,2.75);
#413=VERTEX_POINT('',#502);
#414=LINE('',#503,#504);
#415=CIRCLE('',#505,2.75);
#416=CIRCLE('',#506,2.75);
#417=CIRCLE('',#507,2.75);
#418=CIRCLE('',#508,2.75);
#419=CIRCLE('',#509,2.75);
#420=CIRCLE('',#510,8.0);
#421=CIRCLE('',#511,8.0);
#422=VERTEX_POINT('',#512);
#423=LINE('',#513,#514);
#424=VERTEX_POINT('',#515);
#425=LINE('',#516,#517);
#426=LINE('',#518,#519);
#427=VERTEX_POINT('',#520);
#428=CIRCLE('',#521,6.5);
#429=VERTEX_POINT('',#522);
#430=LINE('',#523,#524);
#431=CIRCLE('',#525,6.5);
#432=LINE('',#526,#527);
#433=LINE('',#528,#529);
#434=VERTEX_POINT('',#530);
#435=CIRCLE('',#531,15.0);
#436=VERTEX_POINT('',#532);
#437=LINE('',#533,#534);
#438=CIRCLE('',#535,15.0);
#439=VERTEX_POINT('',#536);
#440=LINE('',#537,#538);
#441=VERTEX_POINT('',#539);
#442=LINE('',#540,#541);
#443=LINE('',#542,#543);
#444=VERTEX_POINT('',#544);
#445=CIRCLE('',#545,6.5);
#446=VERTEX_POINT('',#546);
#447=LINE('',#547,#548);
#448=CIRCLE('',#549,6.5);
#449=VERTEX_POINT('',#550);
#450=LINE('',#551,#552);
#451=VERTEX_POINT('',#553);
#452=LINE('',#554,#555);
#453=LINE('',#556,#557);
#454=CIRCLE('',#558,15.0);
#455=CIRCLE('',#559,15.0);
#456=CARTESIAN_POINT('',(-15.0,1.83690953073357E-15,4.0));
#457=CARTESIAN_POINT('',(-15.0,1.83690953073357E-15,0.0));
#458=CARTESIAN_POINT('',(-15.0,1.83690953073357E-15,2.0));
#459=VECTOR('',#560,1.0);
#460=CARTESIAN_POINT('',(-13.5779002426738,6.375,4.0));
#461=AXIS2_PLACEMENT_3D('',#561,#562,#563);
#462=CARTESIAN_POINT('',(-13.5779002426738,6.375,0.0));
#463=CARTESIAN_POINT('',(-13.5779002426738,6.375,0.0));
#464=VECTOR('',#564,1.0);
#465=AXIS2_PLACEMENT_3D('',#565,#566,#567);
#466=CARTESIAN_POINT('',(15.0,-1.83690953073357E-15,0.0));
#467=CARTESIAN_POINT('',(15.0,-1.83690953073357E-15,4.0));
#468=CARTESIAN_POINT('',(15.0,-1.83690953073357E-15,2.0));
#469=VECTOR('',#568,1.0);
#470=CARTESIAN_POINT('',(13.5779002426738,6.375,0.0));
#471=AXIS2_PLACEMENT_3D('',#569,#570,#571);
#472=CARTESIAN_POINT('',(13.5779002426738,6.375,4.0));
#473=CARTESIAN_POINT('',(13.5779002426738,6.375,0.0));
#474=VECTOR('',#572,1.0);
#475=AXIS2_PLACEMENT_3D('',#573,#574,#575);
#476=CARTESIAN_POINT('',(8.0,-9.79685083057902E-16,4.0));
#477=CARTESIAN_POINT('',(8.0,-9.79685083057902E-16,0.0));
#478=CARTESIAN_POINT('',(8.0,-9.79685083057902E-16,2.0));
#479=VECTOR('',#576,1.0);
#480=CARTESIAN_POINT('',(-8.0,9.79685083057902E-16,4.0));
#481=AXIS2_PLACEMENT_3D('',#577,#578,#579);
#482=CARTESIAN_POINT('',(-8.0,-9.79685083057902E-16,0.0));
#483=CARTESIAN_POINT('',(-8.0,9.79685083057902E-16,2.0));
#484=VECTOR('',#580,1.0);
#485=AXIS2_PLACEMENT_3D('',#581,#582,#583);
#486=CARTESIAN_POINT('',(2.75,-20.0,4.0));
#487=CARTESIAN_POINT('',(2.75,-20.0,0.0));
#488=CARTESIAN_POINT('',(2.75,-20.0,2.0));
#489=VECTOR('',#584,1.0);
#490=CARTESIAN_POINT('',(-2.75,-20.0,4.0));
#491=AXIS2_PLACEMENT_3D('',#585,#586,#587);
#492=CARTESIAN_POINT('',(-2.75,-20.0,0.0));
#493=CARTESIAN_POINT('',(-2.75,-20.0,2.0));
#494=VECTOR('',#588,1.0);
#495=AXIS2_PLACEMENT_3D('',#589,#590,#591);
#496=CARTESIAN_POINT('',(2.75,20.0,4.0));
#497=CARTESIAN_POINT('',(2.75,20.0,0.0));
#498=CARTESIAN_POINT('',(2.75,20.0,2.0));
#499=VECTOR('',#592,1.0);
#500=CARTESIAN_POINT('',(-2.75,20.0,4.0));
#501=AXIS2_PLACEMENT_3D('',#593,#594,#595);
#502=CARTESIAN_POINT('',(-2.75,20.0,0.0));
#503=CARTESIAN_POINT('',(-2.75,20.0,2.0));
#504=VECTOR('',#596,1.0);
#505=AXIS2_PLACEMENT_3D('',#597,#598,#599);
#506=AXIS2_PLACEMENT_3D('',#600,#601,#602);
#507=AXIS2_PLACEMENT_3D('',#603,#604,#605);
#508=AXIS2_PLACEMENT_3D('',#606,#607,#608);
#509=AXIS2_PLACEMENT_3D('',#609,#610,#611);
#510=AXIS2_PLACEMENT_3D('',#612,#613,#614);
#511=AXIS2_PLACEMENT_3D('',#615,#616,#617);
#512=CARTESIAN_POINT('',(-5.88375677182529,22.7625,4.0));
#513=CARTESIAN_POINT('',(-5.88375677182529,22.7625,4.0));
#514=VECTOR('',#618,1.0);
#515=CARTESIAN_POINT('',(-5.88375677182529,22.7625,0.0));
#516=CARTESIAN_POINT('',(-5.88375677182529,22.7625,0.0));
#517=VECTOR('',#619,1.0);
#518=CARTESIAN_POINT('',(-5.88375677182529,22.7625,0.0));
#519=VECTOR('',#620,1.0);
#520=CARTESIAN_POINT('',(5.88375677182529,22.7625,4.0));
#521=AXIS2_PLACEMENT_3D('',#621,#622,#623);
#522=CARTESIAN_POINT('',(5.88375677182529,22.7625,0.0));
#523=CARTESIAN_POINT('',(5.88375677182529,22.7625,0.0));
#524=VECTOR('',#624,1.0);
#525=AXIS2_PLACEMENT_3D('',#625,#626,#627);
#526=CARTESIAN_POINT('',(13.5779002426738,6.375,4.0));
#527=VECTOR('',#628,1.0);
#528=CARTESIAN_POINT('',(13.5779002426738,6.375,0.0));
#529=VECTOR('',#629,1.0);
#530=CARTESIAN_POINT('',(13.5779002426738,-6.375,4.0));
#531=AXIS2_PLACEMENT_3D('',#630,#631,#632);
#532=CARTESIAN_POINT('',(13.5779002426738,-6.375,0.0));
#533=CARTESIAN_POINT('',(13.5779002426738,-6.375,0.0));
#534=VECTOR('',#633,1.0);
#535=AXIS2_PLACEMENT_3D('',#634,#635,#636);
#536=CARTESIAN_POINT('',(5.88375677182529,-22.7625,4.0));
#537=CARTESIAN_POINT('',(5.88375677182529,-22.7625,4.0));
#538=VECTOR('',#637,1.0);
#539=CARTESIAN_POINT('',(5.88375677182529,-22.7625,0.0));
#540=CARTESIAN_POINT('',(5.88375677182529,-22.7625,0.0));
#541=VECTOR('',#638,1.0);
#542=CARTESIAN_POINT('',(5.88375677182529,-22.7625,0.0));
#543=VECTOR('',#639,1.0);
#544=CARTESIAN_POINT('',(-5.88375677182529,-22.7625,4.0));
#545=AXIS2_PLACEMENT_3D('',#640,#641,#642);
#546=CARTESIAN_POINT('',(-5.88375677182529,-22.7625,0.0));
#547=CARTESIAN_POINT('',(-5.88375677182529,-22.7625,0.0));
#548=VECTOR('',#643,1.0);
#549=AXIS2_PLACEMENT_3D('',#644,#645,#646);
#550=CARTESIAN_POINT('',(-13.5779002426738,-6.375,4.0));
#551=CARTESIAN_POINT('',(-13.5779002426738,-6.375,4.0));
#552=VECTOR('',#647,1.0);
#553=CARTESIAN_POINT('',(-13.5779002426738,-6.375,0.0));
#554=CARTESIAN_POINT('',(-13.5779002426738,-6.375,0.0));
#555=VECTOR('',#648,1.0);
#556=CARTESIAN_POINT('',(-13.5779002426738,-6.375,0.0));
#557=VECTOR('',#649,1.0);
#558=AXIS2_PLACEMENT_3D('',#650,#651,#652);
#559=AXIS2_PLACEMENT_3D('',#653,#654,#655);
#560=DIRECTION('',(-0.0,-0.0,-1.0));
#561=CARTESIAN_POINT('',(0.0,0.0,4.0));
#562=DIRECTION('',(0.0,0.0,-1.0));
#563=DIRECTION('',(1.0,0.0,0.0));
#564=DIRECTION('',(0.0,0.0,1.0));
#565=CARTESIAN_POINT('',(0.0,0.0,0.0));
#566=DIRECTION('',(0.0,0.0,1.0));
#567=DIRECTION('',(1.0,0.0,0.0));
#568=DIRECTION('',(0.0,0.0,1.0));
#569=CARTESIAN_POINT('',(0.0,0.0,0.0));
#570=DIRECTION('',(0.0,0.0,1.0));
#571=DIRECTION('',(1.0,0.0,0.0));
#572=DIRECTION('',(0.0,0.0,1.0));
#573=CARTESIAN_POINT('',(0.0,0.0,4.0));
#574=DIRECTION('',(0.0,0.0,-1.0));
#575=DIRECTION('',(1.0,0.0,0.0));
#576=DIRECTION('',(-0.0,0.0,-1.0));
#577=CARTESIAN_POINT('',(0.0,0.0,4.0));
#578=DIRECTION('',(0.0,0.0,-1.0));
#579=DIRECTION('',(1.0,0.0,0.0));
#580=DIRECTION('',(-0.0,0.0,1.0));
#581=CARTESIAN_POINT('',(0.0,0.0,0.0));
#582=DIRECTION('',(0.0,0.0,1.0));
#583=DIRECTION('',(1.0,0.0,0.0));
#584=DIRECTION('',(-0.0,-0.0,-1.0));
#585=CARTESIAN_POINT('',(0.0,-20.0,4.0));
#586=DIRECTION('',(0.0,0.0,-1.0));
#587=DIRECTION('',(1.0,0.0,0.0));
#588=DIRECTION('',(-0.0,0.0,1.0));
#589=CARTESIAN_POINT('',(0.0,-20.0,0.0));
#590=DIRECTION('',(0.0,0.0,1.0));
#591=DIRECTION('',(1.0,0.0,0.0));
#592=DIRECTION('',(-0.0,-0.0,-1.0));
#593=CARTESIAN_POINT('',(0.0,20.0,4.0));
#594=DIRECTION('',(0.0,0.0,-1.0));
#595=DIRECTION('',(1.0,0.0,0.0));
#596=DIRECTION('',(-0.0,0.0,1.0));
#597=CARTESIAN_POINT('',(0.0,20.0,0.0));
#598=DIRECTION('',(0.0,0.0,1.0));
#599=DIRECTION('',(1.0,0.0,0.0));
#600=CARTESIAN_POINT('',(0.0,20.0,0.0));
#601=DIRECTION('',(0.0,0.0,1.0));
#602=DIRECTION('',(1.0,0.0,0.0));
#603=CARTESIAN_POINT('',(0.0,20.0,4.0));
#604=DIRECTION('',(0.0,0.0,-1.0));
#605=DIRECTION('',(1.0,0.0,0.0));
#606=CARTESIAN_POINT('',(0.0,-20.0,0.0));
#607=DIRECTION('',(0.0,0.0,1.0));
#608=DIRECTION('',(1.0,0.0,0.0));
#609=CARTESIAN_POINT('',(0.0,-20.0,4.0));
#610=DIRECTION('',(0.0,0.0,-1.0));
#611=DIRECTION('',(1.0,0.0,0.0));
#612=CARTESIAN_POINT('',(0.0,0.0,0.0));
#613=DIRECTION('',(0.0,0.0,1.0));
#614=DIRECTION('',(1.0,0.0,0.0));
#615=CARTESIAN_POINT('',(0.0,0.0,4.0));
#616=DIRECTION('',(0.0,0.0,-1.0));
#617=DIRECTION('',(1.0,0.0,0.0));
#618=DIRECTION('',(0.425,0.905193349511584,0.0));
#619=DIRECTION('',(0.0,0.0,1.0));
#620=DIRECTION('',(-0.425,-0.905193349511584,0.0));
#621=CARTESIAN_POINT('',(0.0,20.0,4.0));
#622=DIRECTION('',(0.0,0.0,-1.0));
#623=DIRECTION('',(1.0,0.0,0.0));
#624=DIRECTION('',(0.0,0.0,1.0));
#625=CARTESIAN_POINT('',(0.0,20.0,0.0));
#626=DIRECTION('',(0.0,0.0,1.0));
#627=DIRECTION('',(1.0,0.0,0.0));
#628=DIRECTION('',(0.425,-0.905193349511584,0.0));
#629=DIRECTION('',(-0.425,0.905193349511584,0.0));
#630=CARTESIAN_POINT('',(0.0,0.0,4.0));
#631=DIRECTION('',(0.0,0.0,-1.0));
#632=DIRECTION('',(1.0,0.0,0.0));
#633=DIRECTION('',(0.0,0.0,1.0));
#634=CARTESIAN_POINT('',(0.0,0.0,0.0));
#635=DIRECTION('',(0.0,0.0,1.0));
#636=DIRECTION('',(1.0,0.0,0.0));
#637=DIRECTION('',(-0.425,-0.905193349511584,-0.0));
#638=DIRECTION('',(0.0,0.0,1.0));
#639=DIRECTION('',(0.425,0.905193349511584,0.0));
#640=CARTESIAN_POINT('',(0.0,-20.0,4.0));
#641=DIRECTION('',(0.0,0.0,-1.0));
#642=DIRECTION('',(1.0,0.0,0.0));
#643=DIRECTION('',(0.0,0.0,1.0));
#644=CARTESIAN_POINT('',(0.0,-20.0,0.0));
#645=DIRECTION('',(0.0,0.0,1.0));
#646=DIRECTION('',(1.0,0.0,0.0));
#647=DIRECTION('',(-0.425,0.905193349511584,0.0));
#648=DIRECTION('',(0.0,0.0,1.0));
#649=DIRECTION('',(0.425,-0.905193349511584,0.0));
#650=CARTESIAN_POINT('',(0.0,0.0,0.0));
#651=DIRECTION('',(0.0,0.0,1.0));
#652=DIRECTION('',(1.0,0.0,0.0));
#653=CARTESIAN_POINT('',(0.0,0.0,4.0));
#654=DIRECTION('',(0.0,0.0,-1.0));
#655=DIRECTION('',(1.0,0.0,0.0));
ENDSEC;
END-ISO-10303-21;
