ISO-10303-21;
HEADER;
FILE_DESCRIPTION(('STEP AP214'),'1');
FILE_NAME('C:/TPO v2/SharedFS/Outgoing/ecrou_lard_t-id.stp','2017-01-07T01:58:07',('TraceParts'),('TraceParts S.A.'),'Spatial InterOp 3D',' ',' ');
FILE_SCHEMA(('automotive_design'));
ENDSEC;
DATA;
#1=PRODUCT_DEFINITION_CONTEXT('',#9,'design');
#2=APPLICATION_PROTOCOL_DEFINITION('INTERNATIONAL STANDARD','automotive_design',1994,#9);
#3=PRODUCT_CATEGORY_RELATIONSHIP('NONE','NONE',#10,#11);
#4=SHAPE_DEFINITION_REPRESENTATION(#12,#13);
#5= (GEOMETRIC_REPRESENTATION_CONTEXT(3)GLOBAL_UNCERTAINTY_ASSIGNED_CONTEXT((#16))GLOBAL_UNIT_ASSIGNED_CONTEXT((#18,#19,#20))REPRESENTATION_CONTEXT('NONE','WORKSPACE'));
#9=APPLICATION_CONTEXT(' ');
#10=PRODUCT_CATEGORY('part','NONE');
#11=PRODUCT_RELATED_PRODUCT_CATEGORY('detail',' ',(#22));
#12=PRODUCT_DEFINITION_SHAPE('NONE','NONE',#23);
#13=ADVANCED_BREP_SHAPE_REPRESENTATION('ecrou_lard_t-id',(#24,#25),#5);
#16=UNCERTAINTY_MEASURE_WITH_UNIT(LENGTH_MEASURE(1.0E-006),#18,'','');
#18= (CONVERSION_BASED_UNIT('MILLIMETRE',#28)LENGTH_UNIT()NAMED_UNIT(#31));
#19= (NAMED_UNIT(#33)PLANE_ANGLE_UNIT()SI_UNIT($,.RADIAN.));
#20= (NAMED_UNIT(#33)SOLID_ANGLE_UNIT()SI_UNIT($,.STERADIAN.));
#22=PRODUCT('ecrou_lard_t-id','ecrou_lard_t-id','PART-ecrou_lard_t-id-DESC',(#39));
#23=PRODUCT_DEFINITION('NONE','NONE',#40,#1);
#24=MANIFOLD_SOLID_BREP('ecrou_lard_t-id',#41);
#25=AXIS2_PLACEMENT_3D('',#42,#43,#44);
#28=LENGTH_MEASURE_WITH_UNIT(LENGTH_MEASURE(1.0),#45);
#31=DIMENSIONAL_EXPONENTS(1.0,0.0,0.0,0.0,0.0,0.0,0.0);
#33=DIMENSIONAL_EXPONENTS(0.0,0.0,0.0,0.0,0.0,0.0,0.0);
#39=PRODUCT_CONTEXT('',#9,'mechanical');
#40=PRODUCT_DEFINITION_FORMATION_WITH_SPECIFIED_SOURCE(' ','NONE',#22,.NOT_KNOWN.);
#41=CLOSED_SHELL('',(#46,#47,#48,#49,#50,#51,#52,#53,#54,#55,#56,#57,#58,#59,#60,#61));
#42=CARTESIAN_POINT('',(0.0,0.0,0.0));
#43=DIRECTION('',(0.0,0.0,1.0));
#44=DIRECTION('',(1.0,0.0,0.0));
#45= (NAMED_UNIT(#31)LENGTH_UNIT()SI_UNIT(.MILLI.,.METRE.));
#46=ADVANCED_FACE('',(#63),#64,.F.);
#47=ADVANCED_FACE('',(#65),#66,.F.);
#48=ADVANCED_FACE('',(#67),#68,.F.);
#49=ADVANCED_FACE('',(#69),#70,.F.);
#50=ADVANCED_FACE('',(#71),#72,.F.);
#51=ADVANCED_FACE('',(#73),#74,.F.);
#52=ADVANCED_FACE('',(#75),#76,.T.);
#53=ADVANCED_FACE('',(#77),#78,.T.);
#54=ADVANCED_FACE('',(#79),#80,.T.);
#55=ADVANCED_FACE('',(#81,#82),#83,.T.);
#56=ADVANCED_FACE('',(#84),#85,.T.);
#57=ADVANCED_FACE('',(#86),#87,.T.);
#58=ADVANCED_FACE('',(#88),#89,.T.);
#59=ADVANCED_FACE('',(#90,#91),#92,.T.);
#60=ADVANCED_FACE('',(#93),#94,.T.);
#61=ADVANCED_FACE('',(#95),#96,.F.);
#63=FACE_OUTER_BOUND('',#97,.T.);
#64=CONICAL_SURFACE('',#98,1.8105625,0.785398163397448);
#65=FACE_OUTER_BOUND('',#99,.T.);
#66=CYLINDRICAL_SURFACE('',#100,1.621125);
#67=FACE_OUTER_BOUND('',#101,.T.);
#68=CONICAL_SURFACE('',#102,1.8105625,0.785398163397448);
#69=FACE_OUTER_BOUND('',#103,.T.);
#70=CONICAL_SURFACE('',#104,1.8105625,0.785398163397448);
#71=FACE_OUTER_BOUND('',#105,.T.);
#72=CYLINDRICAL_SURFACE('',#106,1.621125);
#73=FACE_OUTER_BOUND('',#107,.T.);
#74=CONICAL_SURFACE('',#108,1.8105625,0.785398163397448);
#75=FACE_OUTER_BOUND('',#109,.T.);
#76=PLANE('',#110);
#77=FACE_OUTER_BOUND('',#111,.T.);
#78=PLANE('',#112);
#79=FACE_OUTER_BOUND('',#113,.T.);
#80=PLANE('',#114);
#81=FACE_BOUND('',#115,.T.);
#82=FACE_OUTER_BOUND('',#116,.T.);
#83=PLANE('',#117);
#84=FACE_OUTER_BOUND('',#118,.T.);
#85=PLANE('',#119);
#86=FACE_OUTER_BOUND('',#120,.T.);
#87=PLANE('',#121);
#88=FACE_OUTER_BOUND('',#122,.T.);
#89=PLANE('',#123);
#90=FACE_BOUND('',#124,.T.);
#91=FACE_OUTER_BOUND('',#125,.T.);
#92=PLANE('',#126);
#93=FACE_OUTER_BOUND('',#127,.T.);
#94=PLANE('',#128);
#95=FACE_OUTER_BOUND('',#129,.T.);
#96=PLANE('',#130);
#97=EDGE_LOOP('',(#131,#132,#133,#134));
#98=AXIS2_PLACEMENT_3D('',#135,#136,#137);
#99=EDGE_LOOP('',(#138,#139,#140,#141));
#100=AXIS2_PLACEMENT_3D('',#142,#143,#144);
#101=EDGE_LOOP('',(#145,#146,#147,#148));
#102=AXIS2_PLACEMENT_3D('',#149,#150,#151);
#103=EDGE_LOOP('',(#152,#153,#154,#155));
#104=AXIS2_PLACEMENT_3D('',#156,#157,#158);
#105=EDGE_LOOP('',(#159,#160,#161,#162));
#106=AXIS2_PLACEMENT_3D('',#163,#164,#165);
#107=EDGE_LOOP('',(#166,#167,#168,#169));
#108=AXIS2_PLACEMENT_3D('',#170,#171,#172);
#109=EDGE_LOOP('',(#173,#174,#175,#176));
#110=AXIS2_PLACEMENT_3D('',#177,#178,#179);
#111=EDGE_LOOP('',(#180,#181,#182,#183));
#112=AXIS2_PLACEMENT_3D('',#184,#185,#186);
#113=EDGE_LOOP('',(#187,#188,#189,#190));
#114=AXIS2_PLACEMENT_3D('',#191,#192,#193);
#115=EDGE_LOOP('',(#194,#195));
#116=EDGE_LOOP('',(#196,#197,#198,#199));
#117=AXIS2_PLACEMENT_3D('',#200,#201,#202);
#118=EDGE_LOOP('',(#203,#204,#205,#206));
#119=AXIS2_PLACEMENT_3D('',#207,#208,#209);
#120=EDGE_LOOP('',(#210,#211,#212,#213));
#121=AXIS2_PLACEMENT_3D('',#214,#215,#216);
#122=EDGE_LOOP('',(#217,#218,#219,#220));
#123=AXIS2_PLACEMENT_3D('',#221,#222,#223);
#124=EDGE_LOOP('',(#224,#225));
#125=EDGE_LOOP('',(#226,#227,#228,#229));
#126=AXIS2_PLACEMENT_3D('',#230,#231,#232);
#127=EDGE_LOOP('',(#233,#234,#235,#236,#237,#238,#239,#240));
#128=AXIS2_PLACEMENT_3D('',#241,#242,#243);
#129=EDGE_LOOP('',(#244,#245,#246,#247,#248,#249,#250,#251));
#130=AXIS2_PLACEMENT_3D('',#252,#253,#254);
#131=ORIENTED_EDGE('',*,*,#255,.F.);
#132=ORIENTED_EDGE('',*,*,#256,.F.);
#133=ORIENTED_EDGE('',*,*,#257,.F.);
#134=ORIENTED_EDGE('',*,*,#258,.F.);
#135=CARTESIAN_POINT('',(7.45,0.189437499999999,3.35));
#136=DIRECTION('',(3.74915180455534E-033,-1.0,-6.12303176911189E-017));
#137=DIRECTION('',(6.12303176911189E-017,6.12303176911189E-017,-1.0));
#138=ORIENTED_EDGE('',*,*,#259,.F.);
#139=ORIENTED_EDGE('',*,*,#258,.T.);
#140=ORIENTED_EDGE('',*,*,#260,.F.);
#141=ORIENTED_EDGE('',*,*,#261,.F.);
#142=CARTESIAN_POINT('',(7.45,2.1,3.35));
#143=DIRECTION('',(3.74915180455534E-033,-1.0,-6.12303176911189E-017));
#144=DIRECTION('',(6.12303176911189E-017,6.12303176911189E-017,-1.0));
#145=ORIENTED_EDGE('',*,*,#262,.F.);
#146=ORIENTED_EDGE('',*,*,#261,.T.);
#147=ORIENTED_EDGE('',*,*,#263,.F.);
#148=ORIENTED_EDGE('',*,*,#264,.F.);
#149=CARTESIAN_POINT('',(7.45,4.0105625,3.35));
#150=DIRECTION('',(-3.74915180455534E-033,1.0,6.12303176911189E-017));
#151=DIRECTION('',(6.12303176911189E-017,6.12303176911189E-017,-1.0));
#152=ORIENTED_EDGE('',*,*,#262,.T.);
#153=ORIENTED_EDGE('',*,*,#265,.F.);
#154=ORIENTED_EDGE('',*,*,#263,.T.);
#155=ORIENTED_EDGE('',*,*,#266,.T.);
#156=CARTESIAN_POINT('',(7.45,4.0105625,3.35));
#157=DIRECTION('',(-3.74915180455534E-033,1.0,6.12303176911189E-017));
#158=DIRECTION('',(6.12303176911189E-017,6.12303176911189E-017,-1.0));
#159=ORIENTED_EDGE('',*,*,#259,.T.);
#160=ORIENTED_EDGE('',*,*,#266,.F.);
#161=ORIENTED_EDGE('',*,*,#260,.T.);
#162=ORIENTED_EDGE('',*,*,#267,.T.);
#163=CARTESIAN_POINT('',(7.45,2.1,3.35));
#164=DIRECTION('',(3.74915180455534E-033,-1.0,-6.12303176911189E-017));
#165=DIRECTION('',(6.12303176911189E-017,6.12303176911189E-017,-1.0));
#166=ORIENTED_EDGE('',*,*,#255,.T.);
#167=ORIENTED_EDGE('',*,*,#267,.F.);
#168=ORIENTED_EDGE('',*,*,#257,.T.);
#169=ORIENTED_EDGE('',*,*,#268,.F.);
#170=CARTESIAN_POINT('',(7.45,0.189437499999999,3.35));
#171=DIRECTION('',(3.74915180455534E-033,-1.0,-6.12303176911189E-017));
#172=DIRECTION('',(6.12303176911189E-017,6.12303176911189E-017,-1.0));
#173=ORIENTED_EDGE('',*,*,#269,.T.);
#174=ORIENTED_EDGE('',*,*,#270,.F.);
#175=ORIENTED_EDGE('',*,*,#271,.F.);
#176=ORIENTED_EDGE('',*,*,#272,.T.);
#177=CARTESIAN_POINT('',(6.37355806774408E-033,1.7,6.7));
#178=DIRECTION('',(-6.12303176911189E-017,6.12303176911189E-017,1.0));
#179=DIRECTION('',(-3.74915180455534E-033,-1.0,6.12303176911189E-017));
#180=ORIENTED_EDGE('',*,*,#273,.T.);
#181=ORIENTED_EDGE('',*,*,#274,.F.);
#182=ORIENTED_EDGE('',*,*,#275,.F.);
#183=ORIENTED_EDGE('',*,*,#270,.T.);
#184=CARTESIAN_POINT('',(2.46145877118298E-017,3.4,6.298));
#185=DIRECTION('',(0.0,1.0,0.0));
#186=DIRECTION('',(-6.12303176911189E-017,0.0,1.0));
#187=ORIENTED_EDGE('',*,*,#276,.T.);
#188=ORIENTED_EDGE('',*,*,#277,.F.);
#189=ORIENTED_EDGE('',*,*,#278,.F.);
#190=ORIENTED_EDGE('',*,*,#274,.T.);
#191=CARTESIAN_POINT('',(4.92291754236596E-017,3.8,5.896));
#192=DIRECTION('',(-6.12303176911189E-017,0.0,1.0));
#193=DIRECTION('',(0.0,-1.0,0.0));
#194=ORIENTED_EDGE('',*,*,#264,.T.);
#195=ORIENTED_EDGE('',*,*,#265,.T.);
#196=ORIENTED_EDGE('',*,*,#279,.T.);
#197=ORIENTED_EDGE('',*,*,#280,.F.);
#198=ORIENTED_EDGE('',*,*,#281,.F.);
#199=ORIENTED_EDGE('',*,*,#277,.T.);
#200=CARTESIAN_POINT('',(2.05121564265248E-016,4.2,3.35));
#201=DIRECTION('',(0.0,1.0,0.0));
#202=DIRECTION('',(-6.12303176911189E-017,0.0,1.0));
#203=ORIENTED_EDGE('',*,*,#282,.T.);
#204=ORIENTED_EDGE('',*,*,#283,.F.);
#205=ORIENTED_EDGE('',*,*,#284,.T.);
#206=ORIENTED_EDGE('',*,*,#280,.T.);
#207=CARTESIAN_POINT('',(3.61013953106837E-016,3.8,0.804));
#208=DIRECTION('',(6.12303176911189E-017,0.0,-1.0));
#209=DIRECTION('',(0.0,1.0,0.0));
#210=ORIENTED_EDGE('',*,*,#285,.T.);
#211=ORIENTED_EDGE('',*,*,#286,.F.);
#212=ORIENTED_EDGE('',*,*,#287,.T.);
#213=ORIENTED_EDGE('',*,*,#283,.T.);
#214=CARTESIAN_POINT('',(3.85628540818667E-016,3.4,0.402));
#215=DIRECTION('',(0.0,1.0,0.0));
#216=DIRECTION('',(-6.12303176911189E-017,0.0,1.0));
#217=ORIENTED_EDGE('',*,*,#288,.T.);
#218=ORIENTED_EDGE('',*,*,#289,.F.);
#219=ORIENTED_EDGE('',*,*,#290,.T.);
#220=ORIENTED_EDGE('',*,*,#286,.T.);
#221=CARTESIAN_POINT('',(4.10243128530496E-016,1.7,0.0));
#222=DIRECTION('',(6.12303176911189E-017,0.0,-1.0));
#223=DIRECTION('',(0.0,1.0,0.0));
#224=ORIENTED_EDGE('',*,*,#268,.T.);
#225=ORIENTED_EDGE('',*,*,#256,.T.);
#226=ORIENTED_EDGE('',*,*,#291,.T.);
#227=ORIENTED_EDGE('',*,*,#272,.F.);
#228=ORIENTED_EDGE('',*,*,#292,.T.);
#229=ORIENTED_EDGE('',*,*,#289,.T.);
#230=CARTESIAN_POINT('',(2.05121564265248E-016,0.0,3.35));
#231=DIRECTION('',(0.0,-1.0,0.0));
#232=DIRECTION('',(6.12303176911189E-017,0.0,-1.0));
#233=ORIENTED_EDGE('',*,*,#269,.F.);
#234=ORIENTED_EDGE('',*,*,#291,.F.);
#235=ORIENTED_EDGE('',*,*,#288,.F.);
#236=ORIENTED_EDGE('',*,*,#285,.F.);
#237=ORIENTED_EDGE('',*,*,#282,.F.);
#238=ORIENTED_EDGE('',*,*,#279,.F.);
#239=ORIENTED_EDGE('',*,*,#276,.F.);
#240=ORIENTED_EDGE('',*,*,#273,.F.);
#241=CARTESIAN_POINT('',(14.9,2.04099082568807,3.35));
#242=DIRECTION('',(1.0,0.0,6.12303176911189E-017));
#243=DIRECTION('',(6.12303176911189E-017,0.0,-1.0));
#244=ORIENTED_EDGE('',*,*,#292,.F.);
#245=ORIENTED_EDGE('',*,*,#271,.T.);
#246=ORIENTED_EDGE('',*,*,#275,.T.);
#247=ORIENTED_EDGE('',*,*,#278,.T.);
#248=ORIENTED_EDGE('',*,*,#281,.T.);
#249=ORIENTED_EDGE('',*,*,#284,.F.);
#250=ORIENTED_EDGE('',*,*,#287,.F.);
#251=ORIENTED_EDGE('',*,*,#290,.F.);
#252=CARTESIAN_POINT('',(2.05121564265248E-016,2.04099082568807,3.35));
#253=DIRECTION('',(1.0,0.0,6.12303176911189E-017));
#254=DIRECTION('',(6.12303176911189E-017,0.0,-1.0));
#255=EDGE_CURVE('',#293,#294,#295,.T.);
#256=EDGE_CURVE('',#296,#293,#297,.T.);
#257=EDGE_CURVE('',#298,#296,#299,.T.);
#258=EDGE_CURVE('',#294,#298,#300,.T.);
#259=EDGE_CURVE('',#294,#301,#302,.T.);
#260=EDGE_CURVE('',#303,#298,#304,.T.);
#261=EDGE_CURVE('',#301,#303,#305,.T.);
#262=EDGE_CURVE('',#301,#306,#307,.T.);
#263=EDGE_CURVE('',#308,#303,#309,.T.);
#264=EDGE_CURVE('',#306,#308,#310,.T.);
#265=EDGE_CURVE('',#308,#306,#311,.T.);
#266=EDGE_CURVE('',#303,#301,#312,.T.);
#267=EDGE_CURVE('',#298,#294,#313,.T.);
#268=EDGE_CURVE('',#293,#296,#314,.T.);
#269=EDGE_CURVE('',#315,#316,#317,.T.);
#270=EDGE_CURVE('',#318,#316,#319,.T.);
#271=EDGE_CURVE('',#320,#318,#321,.T.);
#272=EDGE_CURVE('',#320,#315,#322,.T.);
#273=EDGE_CURVE('',#316,#323,#324,.T.);
#274=EDGE_CURVE('',#325,#323,#326,.T.);
#275=EDGE_CURVE('',#318,#325,#327,.T.);
#276=EDGE_CURVE('',#323,#328,#329,.T.);
#277=EDGE_CURVE('',#330,#328,#331,.T.);
#278=EDGE_CURVE('',#325,#330,#332,.T.);
#279=EDGE_CURVE('',#328,#333,#334,.T.);
#280=EDGE_CURVE('',#335,#333,#336,.T.);
#281=EDGE_CURVE('',#330,#335,#337,.T.);
#282=EDGE_CURVE('',#333,#338,#339,.T.);
#283=EDGE_CURVE('',#340,#338,#341,.T.);
#284=EDGE_CURVE('',#340,#335,#342,.T.);
#285=EDGE_CURVE('',#338,#343,#344,.T.);
#286=EDGE_CURVE('',#345,#343,#346,.T.);
#287=EDGE_CURVE('',#345,#340,#347,.T.);
#288=EDGE_CURVE('',#343,#348,#349,.T.);
#289=EDGE_CURVE('',#350,#348,#351,.T.);
#290=EDGE_CURVE('',#350,#345,#352,.T.);
#291=EDGE_CURVE('',#348,#315,#353,.T.);
#292=EDGE_CURVE('',#320,#350,#354,.T.);
#293=VERTEX_POINT('',#355);
#294=VERTEX_POINT('',#356);
#295=LINE('',#357,#358);
#296=VERTEX_POINT('',#359);
#297=CIRCLE('',#360,2.0);
#298=VERTEX_POINT('',#361);
#299=LINE('',#362,#363);
#300=CIRCLE('',#364,1.621125);
#301=VERTEX_POINT('',#365);
#302=LINE('',#366,#367);
#303=VERTEX_POINT('',#368);
#304=LINE('',#369,#370);
#305=CIRCLE('',#371,1.621125);
#306=VERTEX_POINT('',#372);
#307=LINE('',#373,#374);
#308=VERTEX_POINT('',#375);
#309=LINE('',#376,#377);
#310=CIRCLE('',#378,2.0);
#311=CIRCLE('',#379,2.0);
#312=CIRCLE('',#380,1.621125);
#313=CIRCLE('',#381,1.621125);
#314=CIRCLE('',#382,2.0);
#315=VERTEX_POINT('',#383);
#316=VERTEX_POINT('',#384);
#317=LINE('',#385,#386);
#318=VERTEX_POINT('',#387);
#319=LINE('',#388,#389);
#320=VERTEX_POINT('',#390);
#321=LINE('',#391,#392);
#322=LINE('',#393,#394);
#323=VERTEX_POINT('',#395);
#324=LINE('',#396,#397);
#325=VERTEX_POINT('',#398);
#326=LINE('',#399,#400);
#327=LINE('',#401,#402);
#328=VERTEX_POINT('',#403);
#329=LINE('',#404,#405);
#330=VERTEX_POINT('',#406);
#331=LINE('',#407,#408);
#332=LINE('',#409,#410);
#333=VERTEX_POINT('',#411);
#334=LINE('',#412,#413);
#335=VERTEX_POINT('',#414);
#336=LINE('',#415,#416);
#337=LINE('',#417,#418);
#338=VERTEX_POINT('',#419);
#339=LINE('',#420,#421);
#340=VERTEX_POINT('',#422);
#341=LINE('',#423,#424);
#342=LINE('',#425,#426);
#343=VERTEX_POINT('',#427);
#344=LINE('',#428,#429);
#345=VERTEX_POINT('',#430);
#346=LINE('',#431,#432);
#347=LINE('',#433,#434);
#348=VERTEX_POINT('',#435);
#349=LINE('',#436,#437);
#350=VERTEX_POINT('',#438);
#351=LINE('',#439,#440);
#352=LINE('',#441,#442);
#353=LINE('',#443,#444);
#354=LINE('',#445,#446);
#355=CARTESIAN_POINT('',(7.45,0.0,1.35));
#356=CARTESIAN_POINT('',(7.45,0.378875,1.728875));
#357=CARTESIAN_POINT('',(7.45,0.1894375,1.5394375));
#358=VECTOR('',#447,1.0);
#359=CARTESIAN_POINT('',(7.45,0.0,5.35));
#360=AXIS2_PLACEMENT_3D('',#448,#449,#450);
#361=CARTESIAN_POINT('',(7.45,0.378875,4.971125));
#362=CARTESIAN_POINT('',(7.45,0.189437499999999,5.1605625));
#363=VECTOR('',#451,1.0);
#364=AXIS2_PLACEMENT_3D('',#452,#453,#454);
#365=CARTESIAN_POINT('',(7.45,3.821125,1.728875));
#366=CARTESIAN_POINT('',(7.45,2.1,1.728875));
#367=VECTOR('',#455,1.0);
#368=CARTESIAN_POINT('',(7.45,3.821125,4.971125));
#369=CARTESIAN_POINT('',(7.45,2.1,4.971125));
#370=VECTOR('',#456,1.0);
#371=AXIS2_PLACEMENT_3D('',#457,#458,#459);
#372=CARTESIAN_POINT('',(7.45,4.2,1.35));
#373=CARTESIAN_POINT('',(7.45,4.0105625,1.5394375));
#374=VECTOR('',#460,1.0);
#375=CARTESIAN_POINT('',(7.45,4.2,5.35));
#376=CARTESIAN_POINT('',(7.45,4.0105625,5.1605625));
#377=VECTOR('',#461,1.0);
#378=AXIS2_PLACEMENT_3D('',#462,#463,#464);
#379=AXIS2_PLACEMENT_3D('',#465,#466,#467);
#380=AXIS2_PLACEMENT_3D('',#468,#469,#470);
#381=AXIS2_PLACEMENT_3D('',#471,#472,#473);
#382=AXIS2_PLACEMENT_3D('',#474,#475,#476);
#383=CARTESIAN_POINT('',(14.9,0.0,6.7));
#384=CARTESIAN_POINT('',(14.9,3.4,6.7));
#385=CARTESIAN_POINT('',(14.9,0.0,6.7));
#386=VECTOR('',#477,1.0);
#387=CARTESIAN_POINT('',(1.27471161354882E-032,3.4,6.7));
#388=CARTESIAN_POINT('',(1.27471161354882E-032,3.4,6.7));
#389=VECTOR('',#478,1.0);
#390=CARTESIAN_POINT('',(0.0,0.0,6.7));
#391=CARTESIAN_POINT('',(0.0,0.0,6.7));
#392=VECTOR('',#479,1.0);
#393=CARTESIAN_POINT('',(0.0,0.0,6.7));
#394=VECTOR('',#480,1.0);
#395=CARTESIAN_POINT('',(14.9,3.4,5.896));
#396=CARTESIAN_POINT('',(14.9,3.4,6.7));
#397=VECTOR('',#481,1.0);
#398=CARTESIAN_POINT('',(4.92291754236596E-017,3.4,5.896));
#399=CARTESIAN_POINT('',(4.92291754236596E-017,3.4,5.896));
#400=VECTOR('',#482,1.0);
#401=CARTESIAN_POINT('',(1.27471161354882E-032,3.4,6.7));
#402=VECTOR('',#483,1.0);
#403=CARTESIAN_POINT('',(14.9,4.2,5.896));
#404=CARTESIAN_POINT('',(14.9,3.4,5.896));
#405=VECTOR('',#484,1.0);
#406=CARTESIAN_POINT('',(4.92291754236596E-017,4.2,5.896));
#407=CARTESIAN_POINT('',(4.92291754236596E-017,4.2,5.896));
#408=VECTOR('',#485,1.0);
#409=CARTESIAN_POINT('',(4.92291754236596E-017,3.4,5.896));
#410=VECTOR('',#486,1.0);
#411=CARTESIAN_POINT('',(14.9,4.2,0.804000000000001));
#412=CARTESIAN_POINT('',(14.9,4.2,5.896));
#413=VECTOR('',#487,1.0);
#414=CARTESIAN_POINT('',(3.61013953106837E-016,4.2,0.804));
#415=CARTESIAN_POINT('',(3.61013953106837E-016,4.2,0.804));
#416=VECTOR('',#488,1.0);
#417=CARTESIAN_POINT('',(4.92291754236596E-017,4.2,5.896));
#418=VECTOR('',#489,1.0);
#419=CARTESIAN_POINT('',(14.9,3.4,0.804000000000001));
#420=CARTESIAN_POINT('',(14.9,3.4,0.804000000000001));
#421=VECTOR('',#490,1.0);
#422=CARTESIAN_POINT('',(3.61013953106837E-016,3.4,0.804));
#423=CARTESIAN_POINT('',(3.61013953106837E-016,3.4,0.804));
#424=VECTOR('',#491,1.0);
#425=CARTESIAN_POINT('',(3.61013953106837E-016,3.4,0.804));
#426=VECTOR('',#492,1.0);
#427=CARTESIAN_POINT('',(14.9,3.4,8.88178419700125E-016));
#428=CARTESIAN_POINT('',(14.9,3.4,8.88178419700125E-016));
#429=VECTOR('',#493,1.0);
#430=CARTESIAN_POINT('',(4.10243128530496E-016,3.4,0.0));
#431=CARTESIAN_POINT('',(4.10243128530496E-016,3.4,0.0));
#432=VECTOR('',#494,1.0);
#433=CARTESIAN_POINT('',(4.10243128530496E-016,3.4,0.0));
#434=VECTOR('',#495,1.0);
#435=CARTESIAN_POINT('',(14.9,0.0,8.88178419700125E-016));
#436=CARTESIAN_POINT('',(14.9,0.0,8.88178419700125E-016));
#437=VECTOR('',#496,1.0);
#438=CARTESIAN_POINT('',(4.10243128530496E-016,0.0,0.0));
#439=CARTESIAN_POINT('',(4.10243128530496E-016,0.0,0.0));
#440=VECTOR('',#497,1.0);
#441=CARTESIAN_POINT('',(4.10243128530496E-016,0.0,0.0));
#442=VECTOR('',#498,1.0);
#443=CARTESIAN_POINT('',(14.9,0.0,6.7));
#444=VECTOR('',#499,1.0);
#445=CARTESIAN_POINT('',(0.0,0.0,6.7));
#446=VECTOR('',#500,1.0);
#447=DIRECTION('',(-2.65105066469886E-033,0.707106781186547,0.707106781186548));
#448=CARTESIAN_POINT('',(7.45,0.0,3.35));
#449=DIRECTION('',(0.0,1.0,0.0));
#450=DIRECTION('',(6.12303176911189E-017,0.0,-1.0));
#451=DIRECTION('',(2.65105066469886E-033,-0.707106781186547,0.707106781186548));
#452=CARTESIAN_POINT('',(7.45,0.378875,3.35));
#453=DIRECTION('',(3.74915180455534E-033,-1.0,-6.12303176911189E-017));
#454=DIRECTION('',(6.12303176911189E-017,6.12303176911189E-017,-1.0));
#455=DIRECTION('',(-3.74915180455534E-033,1.0,6.12303176911189E-017));
#456=DIRECTION('',(3.74915180455534E-033,-1.0,-6.12303176911189E-017));
#457=CARTESIAN_POINT('',(7.45,3.821125,3.35));
#458=DIRECTION('',(3.74915180455534E-033,-1.0,-6.12303176911189E-017));
#459=DIRECTION('',(6.12303176911189E-017,6.12303176911189E-017,-1.0));
#460=DIRECTION('',(-2.65105066469886E-033,0.707106781186547,-0.707106781186548));
#461=DIRECTION('',(2.65105066469886E-033,-0.707106781186547,-0.707106781186548));
#462=CARTESIAN_POINT('',(7.45,4.2,3.35));
#463=DIRECTION('',(0.0,-1.0,0.0));
#464=DIRECTION('',(6.12303176911189E-017,0.0,-1.0));
#465=CARTESIAN_POINT('',(7.45,4.2,3.35));
#466=DIRECTION('',(0.0,-1.0,0.0));
#467=DIRECTION('',(6.12303176911189E-017,0.0,-1.0));
#468=CARTESIAN_POINT('',(7.45,3.821125,3.35));
#469=DIRECTION('',(3.74915180455534E-033,-1.0,-6.12303176911189E-017));
#470=DIRECTION('',(6.12303176911189E-017,6.12303176911189E-017,-1.0));
#471=CARTESIAN_POINT('',(7.45,0.378875,3.35));
#472=DIRECTION('',(3.74915180455534E-033,-1.0,-6.12303176911189E-017));
#473=DIRECTION('',(6.12303176911189E-017,6.12303176911189E-017,-1.0));
#474=CARTESIAN_POINT('',(7.45,0.0,3.35));
#475=DIRECTION('',(0.0,1.0,0.0));
#476=DIRECTION('',(6.12303176911189E-017,0.0,-1.0));
#477=DIRECTION('',(3.74915180455534E-033,1.0,-6.12303176911189E-017));
#478=DIRECTION('',(1.0,0.0,6.12303176911189E-017));
#479=DIRECTION('',(3.74915180455534E-033,1.0,-6.12303176911189E-017));
#480=DIRECTION('',(1.0,0.0,6.12303176911189E-017));
#481=DIRECTION('',(6.12303176911189E-017,0.0,-1.0));
#482=DIRECTION('',(1.0,0.0,6.12303176911189E-017));
#483=DIRECTION('',(6.12303176911189E-017,0.0,-1.0));
#484=DIRECTION('',(0.0,1.0,0.0));
#485=DIRECTION('',(1.0,0.0,6.12303176911189E-017));
#486=DIRECTION('',(0.0,1.0,0.0));
#487=DIRECTION('',(6.12303176911189E-017,0.0,-1.0));
#488=DIRECTION('',(1.0,0.0,6.12303176911189E-017));
#489=DIRECTION('',(6.12303176911189E-017,0.0,-1.0));
#490=DIRECTION('',(0.0,-1.0,0.0));
#491=DIRECTION('',(1.0,0.0,6.12303176911189E-017));
#492=DIRECTION('',(0.0,1.0,0.0));
#493=DIRECTION('',(6.12303176911189E-017,0.0,-1.0));
#494=DIRECTION('',(1.0,0.0,6.12303176911189E-017));
#495=DIRECTION('',(-6.12303176911189E-017,0.0,1.0));
#496=DIRECTION('',(0.0,-1.0,0.0));
#497=DIRECTION('',(1.0,0.0,6.12303176911189E-017));
#498=DIRECTION('',(0.0,1.0,0.0));
#499=DIRECTION('',(-6.12303176911189E-017,0.0,1.0));
#500=DIRECTION('',(6.12303176911189E-017,0.0,-1.0));
ENDSEC;
END-ISO-10303-21;
