ISO-10303-21;
HEADER;
FILE_DESCRIPTION(('STEP AP203'),'1');
FILE_NAME('articulation_cp_63.stp','2018-10-24T20:21:10',('TraceParts'),('TraceParts S.A.'),'Spatial InterOp 3D',' ',' ');
FILE_SCHEMA(('CONFIG_CONTROL_DESIGN'));
ENDSEC;
DATA;
#1=DESIGN_CONTEXT('',#27,'design');
#2=APPLICATION_PROTOCOL_DEFINITION('INTERNATIONAL STANDARD','config_control_design',1994,#27);
#3=PRODUCT_CATEGORY_RELATIONSHIP('NONE','NONE',#28,#29);
#4=DATE_AND_TIME(#30,#31);
#5=DATE_TIME_ROLE('creation_date');
#6=DATE_TIME_ROLE('classification_date');
#7=PERSON_AND_ORGANIZATION_ROLE('creator');
#8=PERSON_AND_ORGANIZATION_ROLE('design_supplier');
#9=PERSON_AND_ORGANIZATION_ROLE('classification_officer');
#10=PERSON_AND_ORGANIZATION_ROLE('design_owner');
#11=APPROVAL_PERSON_ORGANIZATION(#32,#33,#34);
#12=APPROVAL_DATE_TIME(#4,#33);
#13=CC_DESIGN_APPROVAL(#33,(#35,#36,#37));
#14=CC_DESIGN_DATE_AND_TIME_ASSIGNMENT(#4,#5,(#37));
#15=CC_DESIGN_DATE_AND_TIME_ASSIGNMENT(#4,#6,(#35));
#16=CC_DESIGN_PERSON_AND_ORGANIZATION_ASSIGNMENT(#32,#10,(#38));
#17=CC_DESIGN_PERSON_AND_ORGANIZATION_ASSIGNMENT(#32,#7,(#37));
#18=CC_DESIGN_PERSON_AND_ORGANIZATION_ASSIGNMENT(#32,#7,(#36));
#19=CC_DESIGN_PERSON_AND_ORGANIZATION_ASSIGNMENT(#32,#8,(#36));
#20=CC_DESIGN_SECURITY_CLASSIFICATION(#35,(#36));
#21=CC_DESIGN_PERSON_AND_ORGANIZATION_ASSIGNMENT(#32,#9,(#35));
#22=SHAPE_DEFINITION_REPRESENTATION(#39,#40);
#23= (GEOMETRIC_REPRESENTATION_CONTEXT(3)GLOBAL_UNCERTAINTY_ASSIGNED_CONTEXT((#43))GLOBAL_UNIT_ASSIGNED_CONTEXT((#45,#46,#47))REPRESENTATION_CONTEXT('NONE','WORKSPACE'));
#27=APPLICATION_CONTEXT('CONFIGURATION CONTROLLED 3D DESIGNS OF MECHANICAL PARTS AND ASSEMBLIES');
#28=PRODUCT_CATEGORY('part','NONE');
#29=PRODUCT_RELATED_PRODUCT_CATEGORY('detail',' ',(#38));
#30=CALENDAR_DATE(2018,24,9);
#31=LOCAL_TIME(22,21,10.0,#49);
#32=PERSON_AND_ORGANIZATION(#50,#51);
#33=APPROVAL(#52,'SOLID MODEL');
#34=APPROVAL_ROLE('APPROVED');
#35=SECURITY_CLASSIFICATION('','',#53);
#36=PRODUCT_DEFINITION_FORMATION_WITH_SPECIFIED_SOURCE(' ','NONE',#38,.NOT_KNOWN.);
#37=PRODUCT_DEFINITION('','NONE',#36,#1);
#38=PRODUCT('1','','PART--DESC',(#54));
#39=PRODUCT_DEFINITION_SHAPE('NONE','NONE',#37);
#40=ADVANCED_BREP_SHAPE_REPRESENTATION('1',(#55,#56),#23);
#43=UNCERTAINTY_MEASURE_WITH_UNIT(LENGTH_MEASURE(1.0E-06),#45,'','');
#45= (CONVERSION_BASED_UNIT('MILLIMETRE',#59)LENGTH_UNIT()NAMED_UNIT(#62));
#46= (NAMED_UNIT(#64)PLANE_ANGLE_UNIT()SI_UNIT($,.RADIAN.));
#47= (NAMED_UNIT(#64)SOLID_ANGLE_UNIT()SI_UNIT($,.STERADIAN.));
#49=COORDINATED_UNIVERSAL_TIME_OFFSET(1,0,.AHEAD.);
#50=PERSON('','UNSPECIFIED',$,$,$,$);
#51=ORGANIZATION('UNSPECIFIED','UNSPECIFIED','UNSPECIFIED');
#52=APPROVAL_STATUS('approved');
#53=SECURITY_CLASSIFICATION_LEVEL('unclassified');
#54=MECHANICAL_CONTEXT('',#27,'mechanical');
#55=MANIFOLD_SOLID_BREP('1',#70);
#56=AXIS2_PLACEMENT_3D('',#71,#72,#73);
#59=LENGTH_MEASURE_WITH_UNIT(LENGTH_MEASURE(1.0),#74);
#62=DIMENSIONAL_EXPONENTS(1.0,0.0,0.0,0.0,0.0,0.0,0.0);
#64=DIMENSIONAL_EXPONENTS(0.0,0.0,0.0,0.0,0.0,0.0,0.0);
#70=CLOSED_SHELL('',(#75,#76,#77,#78,#79,#80,#81,#82,#83,#84,#85,#86,#87,#88,#89,#90,#91,#92,#93,#94));
#71=CARTESIAN_POINT('',(0.0,0.0,0.0));
#72=DIRECTION('',(0.0,0.0,1.0));
#73=DIRECTION('',(1.0,0.0,0.0));
#74= (NAMED_UNIT(#62)LENGTH_UNIT()SI_UNIT(.MILLI.,.METRE.));
#75=ADVANCED_FACE('',(#96),#97,.T.);
#76=ADVANCED_FACE('',(#98),#99,.T.);
#77=ADVANCED_FACE('',(#100),#101,.T.);
#78=ADVANCED_FACE('',(#102),#103,.T.);
#79=ADVANCED_FACE('',(#104),#105,.F.);
#80=ADVANCED_FACE('',(#106),#107,.T.);
#81=ADVANCED_FACE('',(#108),#109,.T.);
#82=ADVANCED_FACE('',(#110),#111,.T.);
#83=ADVANCED_FACE('',(#112),#113,.F.);
#84=ADVANCED_FACE('',(#114),#115,.T.);
#85=ADVANCED_FACE('',(#116,#117),#118,.T.);
#86=ADVANCED_FACE('',(#119),#120,.T.);
#87=ADVANCED_FACE('',(#121),#122,.T.);
#88=ADVANCED_FACE('',(#123),#124,.T.);
#89=ADVANCED_FACE('',(#125,#126),#127,.T.);
#90=ADVANCED_FACE('',(#128,#129),#130,.T.);
#91=ADVANCED_FACE('',(#131),#132,.T.);
#92=ADVANCED_FACE('',(#133,#134),#135,.T.);
#93=ADVANCED_FACE('',(#136),#137,.T.);
#94=ADVANCED_FACE('',(#138),#139,.T.);
#96=FACE_OUTER_BOUND('',#140,.T.);
#97=CONICAL_SURFACE('',#141,13.5,1.0471975511966);
#98=FACE_OUTER_BOUND('',#142,.T.);
#99=CYLINDRICAL_SURFACE('',#143,20.0);
#100=FACE_OUTER_BOUND('',#144,.T.);
#101=CONICAL_SURFACE('',#145,13.5,1.0471975511966);
#102=FACE_OUTER_BOUND('',#146,.T.);
#103=CYLINDRICAL_SURFACE('',#147,16.0);
#104=FACE_OUTER_BOUND('',#148,.T.);
#105=CYLINDRICAL_SURFACE('',#149,8.0);
#106=FACE_OUTER_BOUND('',#150,.T.);
#107=CYLINDRICAL_SURFACE('',#151,8.0);
#108=FACE_OUTER_BOUND('',#152,.T.);
#109=CYLINDRICAL_SURFACE('',#153,8.0);
#110=FACE_OUTER_BOUND('',#154,.T.);
#111=PLANE('',#155);
#112=FACE_OUTER_BOUND('',#156,.T.);
#113=CYLINDRICAL_SURFACE('',#157,8.0);
#114=FACE_OUTER_BOUND('',#158,.T.);
#115=PLANE('',#159);
#116=FACE_BOUND('',#160,.T.);
#117=FACE_OUTER_BOUND('',#161,.T.);
#118=PLANE('',#162);
#119=FACE_OUTER_BOUND('',#163,.T.);
#120=CYLINDRICAL_SURFACE('',#164,16.0);
#121=FACE_OUTER_BOUND('',#165,.T.);
#122=CONICAL_SURFACE('',#166,13.5,1.0471975511966);
#123=FACE_OUTER_BOUND('',#167,.T.);
#124=PLANE('',#168);
#125=FACE_BOUND('',#169,.T.);
#126=FACE_OUTER_BOUND('',#170,.T.);
#127=PLANE('',#171);
#128=FACE_BOUND('',#172,.T.);
#129=FACE_OUTER_BOUND('',#173,.T.);
#130=PLANE('',#174);
#131=FACE_OUTER_BOUND('',#175,.T.);
#132=CYLINDRICAL_SURFACE('',#176,20.0);
#133=FACE_BOUND('',#177,.T.);
#134=FACE_OUTER_BOUND('',#178,.T.);
#135=PLANE('',#179);
#136=FACE_OUTER_BOUND('',#180,.T.);
#137=CONICAL_SURFACE('',#181,13.5,1.0471975511966);
#138=FACE_OUTER_BOUND('',#182,.T.);
#139=PLANE('',#183);
#140=EDGE_LOOP('',(#184,#185,#186,#187));
#141=AXIS2_PLACEMENT_3D('',#188,#189,#190);
#142=EDGE_LOOP('',(#191,#192,#193,#194));
#143=AXIS2_PLACEMENT_3D('',#195,#196,#197);
#144=EDGE_LOOP('',(#198,#199,#200,#201));
#145=AXIS2_PLACEMENT_3D('',#202,#203,#204);
#146=EDGE_LOOP('',(#205,#206,#207,#208,#209,#210,#211,#212));
#147=AXIS2_PLACEMENT_3D('',#213,#214,#215);
#148=EDGE_LOOP('',(#216,#217,#218,#219));
#149=AXIS2_PLACEMENT_3D('',#220,#221,#222);
#150=EDGE_LOOP('',(#223,#224,#225,#226));
#151=AXIS2_PLACEMENT_3D('',#227,#228,#229);
#152=EDGE_LOOP('',(#230,#231,#232,#233));
#153=AXIS2_PLACEMENT_3D('',#234,#235,#236);
#154=EDGE_LOOP('',(#237,#238));
#155=AXIS2_PLACEMENT_3D('',#239,#240,#241);
#156=EDGE_LOOP('',(#242,#243,#244,#245));
#157=AXIS2_PLACEMENT_3D('',#246,#247,#248);
#158=EDGE_LOOP('',(#249,#250));
#159=AXIS2_PLACEMENT_3D('',#251,#252,#253);
#160=EDGE_LOOP('',(#254,#255));
#161=EDGE_LOOP('',(#256,#257,#258,#259,#260));
#162=AXIS2_PLACEMENT_3D('',#261,#262,#263);
#163=EDGE_LOOP('',(#264,#265,#266,#267,#268,#269,#270,#271));
#164=AXIS2_PLACEMENT_3D('',#272,#273,#274);
#165=EDGE_LOOP('',(#275,#276,#277,#278));
#166=AXIS2_PLACEMENT_3D('',#279,#280,#281);
#167=EDGE_LOOP('',(#282,#283));
#168=AXIS2_PLACEMENT_3D('',#284,#285,#286);
#169=EDGE_LOOP('',(#287,#288));
#170=EDGE_LOOP('',(#289,#290,#291,#292,#293));
#171=AXIS2_PLACEMENT_3D('',#294,#295,#296);
#172=EDGE_LOOP('',(#297,#298));
#173=EDGE_LOOP('',(#299,#300));
#174=AXIS2_PLACEMENT_3D('',#301,#302,#303);
#175=EDGE_LOOP('',(#304,#305,#306,#307));
#176=AXIS2_PLACEMENT_3D('',#308,#309,#310);
#177=EDGE_LOOP('',(#311,#312));
#178=EDGE_LOOP('',(#313,#314));
#179=AXIS2_PLACEMENT_3D('',#315,#316,#317);
#180=EDGE_LOOP('',(#318,#319,#320,#321));
#181=AXIS2_PLACEMENT_3D('',#322,#323,#324);
#182=EDGE_LOOP('',(#325,#326,#327,#328));
#183=AXIS2_PLACEMENT_3D('',#329,#330,#331);
#184=ORIENTED_EDGE('',*,*,#332,.F.);
#185=ORIENTED_EDGE('',*,*,#333,.T.);
#186=ORIENTED_EDGE('',*,*,#334,.T.);
#187=ORIENTED_EDGE('',*,*,#335,.F.);
#188=CARTESIAN_POINT('',(2.05468276818533E-15,0.0,-33.5566243270259));
#189=DIRECTION('',(-6.12303176911189E-17,-0.0,1.0));
#190=DIRECTION('',(0.0,1.0,0.0));
#191=ORIENTED_EDGE('',*,*,#336,.F.);
#192=ORIENTED_EDGE('',*,*,#337,.T.);
#193=ORIENTED_EDGE('',*,*,#338,.F.);
#194=ORIENTED_EDGE('',*,*,#339,.F.);
#195=CARTESIAN_POINT('',(5.3576527979729E-17,0.0,-0.875));
#196=DIRECTION('',(6.12303176911189E-17,0.0,-1.0));
#197=DIRECTION('',(0.0,1.0,0.0));
#198=ORIENTED_EDGE('',*,*,#340,.F.);
#199=ORIENTED_EDGE('',*,*,#341,.F.);
#200=ORIENTED_EDGE('',*,*,#342,.T.);
#201=ORIENTED_EDGE('',*,*,#343,.T.);
#202=CARTESIAN_POINT('',(2.05468276818533E-15,0.0,-33.5566243270259));
#203=DIRECTION('',(-6.12303176911189E-17,-0.0,1.0));
#204=DIRECTION('',(0.0,1.0,0.0));
#205=ORIENTED_EDGE('',*,*,#344,.F.);
#206=ORIENTED_EDGE('',*,*,#345,.T.);
#207=ORIENTED_EDGE('',*,*,#346,.F.);
#208=ORIENTED_EDGE('',*,*,#343,.F.);
#209=ORIENTED_EDGE('',*,*,#347,.T.);
#210=ORIENTED_EDGE('',*,*,#348,.T.);
#211=ORIENTED_EDGE('',*,*,#349,.T.);
#212=ORIENTED_EDGE('',*,*,#333,.F.);
#213=CARTESIAN_POINT('',(1.03672873657047E-15,0.0,-16.9316243270259));
#214=DIRECTION('',(6.12303176911189E-17,0.0,-1.0));
#215=DIRECTION('',(0.0,1.0,0.0));
#216=ORIENTED_EDGE('',*,*,#350,.F.);
#217=ORIENTED_EDGE('',*,*,#351,.F.);
#218=ORIENTED_EDGE('',*,*,#352,.F.);
#219=ORIENTED_EDGE('',*,*,#353,.F.);
#220=CARTESIAN_POINT('',(1.16337603613126E-15,0.0,-19.0));
#221=DIRECTION('',(1.0,0.0,6.12303176911189E-17));
#222=DIRECTION('',(6.12303176911189E-17,0.0,-1.0));
#223=ORIENTED_EDGE('',*,*,#354,.F.);
#224=ORIENTED_EDGE('',*,*,#355,.F.);
#225=ORIENTED_EDGE('',*,*,#356,.F.);
#226=ORIENTED_EDGE('',*,*,#357,.F.);
#227=CARTESIAN_POINT('',(0.0,0.0,0.0));
#228=DIRECTION('',(-6.12303176911189E-17,0.0,1.0));
#229=DIRECTION('',(1.0,0.0,6.12303176911189E-17));
#230=ORIENTED_EDGE('',*,*,#354,.T.);
#231=ORIENTED_EDGE('',*,*,#358,.F.);
#232=ORIENTED_EDGE('',*,*,#356,.T.);
#233=ORIENTED_EDGE('',*,*,#359,.F.);
#234=CARTESIAN_POINT('',(0.0,0.0,0.0));
#235=DIRECTION('',(-6.12303176911189E-17,0.0,1.0));
#236=DIRECTION('',(1.0,0.0,6.12303176911189E-17));
#237=ORIENTED_EDGE('',*,*,#357,.T.);
#238=ORIENTED_EDGE('',*,*,#358,.T.);
#239=CARTESIAN_POINT('',(-6.12303176911189E-17,0.0,1.0));
#240=DIRECTION('',(-6.12303176911189E-17,0.0,1.0));
#241=DIRECTION('',(1.0,0.0,6.12303176911189E-17));
#242=ORIENTED_EDGE('',*,*,#350,.T.);
#243=ORIENTED_EDGE('',*,*,#360,.F.);
#244=ORIENTED_EDGE('',*,*,#352,.T.);
#245=ORIENTED_EDGE('',*,*,#361,.F.);
#246=CARTESIAN_POINT('',(1.16337603613126E-15,0.0,-19.0));
#247=DIRECTION('',(1.0,0.0,6.12303176911189E-17));
#248=DIRECTION('',(6.12303176911189E-17,0.0,-1.0));
#249=ORIENTED_EDGE('',*,*,#362,.F.);
#250=ORIENTED_EDGE('',*,*,#363,.T.);
#251=CARTESIAN_POINT('',(-14.0,-1.71444889535133E-15,-3.5));
#252=DIRECTION('',(6.12303176911189E-17,0.0,-1.0));
#253=DIRECTION('',(1.0,1.22460635382238E-16,6.12303176911189E-17));
#254=ORIENTED_EDGE('',*,*,#360,.T.);
#255=ORIENTED_EDGE('',*,*,#353,.T.);
#256=ORIENTED_EDGE('',*,*,#364,.F.);
#257=ORIENTED_EDGE('',*,*,#365,.F.);
#258=ORIENTED_EDGE('',*,*,#366,.F.);
#259=ORIENTED_EDGE('',*,*,#367,.F.);
#260=ORIENTED_EDGE('',*,*,#363,.F.);
#261=CARTESIAN_POINT('',(-11.0,-1.34706698920461E-15,-19.75));
#262=DIRECTION('',(-1.0,-1.22460635382238E-16,-6.12303176911189E-17));
#263=DIRECTION('',(6.12303176911189E-17,0.0,-1.0));
#264=ORIENTED_EDGE('',*,*,#344,.T.);
#265=ORIENTED_EDGE('',*,*,#368,.F.);
#266=ORIENTED_EDGE('',*,*,#364,.T.);
#267=ORIENTED_EDGE('',*,*,#362,.T.);
#268=ORIENTED_EDGE('',*,*,#367,.T.);
#269=ORIENTED_EDGE('',*,*,#369,.F.);
#270=ORIENTED_EDGE('',*,*,#346,.T.);
#271=ORIENTED_EDGE('',*,*,#370,.T.);
#272=CARTESIAN_POINT('',(1.03672873657047E-15,0.0,-16.9316243270259));
#273=DIRECTION('',(6.12303176911189E-17,0.0,-1.0));
#274=DIRECTION('',(0.0,1.0,0.0));
#275=ORIENTED_EDGE('',*,*,#340,.T.);
#276=ORIENTED_EDGE('',*,*,#369,.T.);
#277=ORIENTED_EDGE('',*,*,#366,.T.);
#278=ORIENTED_EDGE('',*,*,#371,.F.);
#279=CARTESIAN_POINT('',(2.05468276818533E-15,0.0,-33.5566243270259));
#280=DIRECTION('',(-6.12303176911189E-17,-0.0,1.0));
#281=DIRECTION('',(0.0,1.0,0.0));
#282=ORIENTED_EDGE('',*,*,#348,.F.);
#283=ORIENTED_EDGE('',*,*,#372,.T.);
#284=CARTESIAN_POINT('',(14.0,0.0,-3.5));
#285=DIRECTION('',(6.12303176911189E-17,0.0,-1.0));
#286=DIRECTION('',(-1.0,0.0,-6.12303176911189E-17));
#287=ORIENTED_EDGE('',*,*,#351,.T.);
#288=ORIENTED_EDGE('',*,*,#361,.T.);
#289=ORIENTED_EDGE('',*,*,#347,.F.);
#290=ORIENTED_EDGE('',*,*,#342,.F.);
#291=ORIENTED_EDGE('',*,*,#334,.F.);
#292=ORIENTED_EDGE('',*,*,#349,.F.);
#293=ORIENTED_EDGE('',*,*,#372,.F.);
#294=CARTESIAN_POINT('',(11.0,0.0,-19.75));
#295=DIRECTION('',(1.0,0.0,6.12303176911189E-17));
#296=DIRECTION('',(6.12303176911189E-17,0.0,-1.0));
#297=ORIENTED_EDGE('',*,*,#355,.T.);
#298=ORIENTED_EDGE('',*,*,#359,.T.);
#299=ORIENTED_EDGE('',*,*,#337,.F.);
#300=ORIENTED_EDGE('',*,*,#373,.F.);
#301=CARTESIAN_POINT('',(0.0,10.0,0.0));
#302=DIRECTION('',(-6.12303176911189E-17,0.0,1.0));
#303=DIRECTION('',(0.0,-1.0,0.0));
#304=ORIENTED_EDGE('',*,*,#336,.T.);
#305=ORIENTED_EDGE('',*,*,#374,.F.);
#306=ORIENTED_EDGE('',*,*,#338,.T.);
#307=ORIENTED_EDGE('',*,*,#373,.T.);
#308=CARTESIAN_POINT('',(5.3576527979729E-17,0.0,-0.875));
#309=DIRECTION('',(6.12303176911189E-17,0.0,-1.0));
#310=DIRECTION('',(0.0,1.0,0.0));
#311=ORIENTED_EDGE('',*,*,#345,.F.);
#312=ORIENTED_EDGE('',*,*,#370,.F.);
#313=ORIENTED_EDGE('',*,*,#339,.T.);
#314=ORIENTED_EDGE('',*,*,#374,.T.);
#315=CARTESIAN_POINT('',(1.07153055959458E-16,18.0,-1.75));
#316=DIRECTION('',(6.12303176911189E-17,0.0,-1.0));
#317=DIRECTION('',(0.0,1.0,0.0));
#318=ORIENTED_EDGE('',*,*,#332,.T.);
#319=ORIENTED_EDGE('',*,*,#375,.F.);
#320=ORIENTED_EDGE('',*,*,#365,.T.);
#321=ORIENTED_EDGE('',*,*,#368,.T.);
#322=CARTESIAN_POINT('',(2.05468276818533E-15,0.0,-33.5566243270259));
#323=DIRECTION('',(-6.12303176911189E-17,-0.0,1.0));
#324=DIRECTION('',(0.0,1.0,0.0));
#325=ORIENTED_EDGE('',*,*,#341,.T.);
#326=ORIENTED_EDGE('',*,*,#371,.T.);
#327=ORIENTED_EDGE('',*,*,#375,.T.);
#328=ORIENTED_EDGE('',*,*,#335,.T.);
#329=CARTESIAN_POINT('',(2.14306111918916E-15,5.5,-35.0));
#330=DIRECTION('',(6.12303176911189E-17,0.0,-1.0));
#331=DIRECTION('',(0.0,1.0,0.0));
#332=EDGE_CURVE('',#376,#377,#378,.T.);
#333=EDGE_CURVE('',#376,#379,#380,.T.);
#334=EDGE_CURVE('',#379,#381,#382,.T.);
#335=EDGE_CURVE('',#377,#381,#383,.T.);
#336=EDGE_CURVE('',#384,#385,#386,.T.);
#337=EDGE_CURVE('',#384,#387,#388,.T.);
#338=EDGE_CURVE('',#389,#387,#390,.T.);
#339=EDGE_CURVE('',#385,#389,#391,.T.);
#340=EDGE_CURVE('',#392,#393,#394,.T.);
#341=EDGE_CURVE('',#381,#392,#395,.T.);
#342=EDGE_CURVE('',#381,#396,#397,.T.);
#343=EDGE_CURVE('',#396,#393,#398,.T.);
#344=EDGE_CURVE('',#399,#376,#400,.T.);
#345=EDGE_CURVE('',#399,#401,#402,.T.);
#346=EDGE_CURVE('',#393,#401,#403,.T.);
#347=EDGE_CURVE('',#396,#404,#405,.T.);
#348=EDGE_CURVE('',#404,#406,#407,.T.);
#349=EDGE_CURVE('',#406,#379,#408,.T.);
#350=EDGE_CURVE('',#409,#410,#411,.T.);
#351=EDGE_CURVE('',#412,#409,#413,.T.);
#352=EDGE_CURVE('',#414,#412,#415,.T.);
#353=EDGE_CURVE('',#410,#414,#416,.T.);
#354=EDGE_CURVE('',#417,#418,#419,.T.);
#355=EDGE_CURVE('',#420,#417,#421,.T.);
#356=EDGE_CURVE('',#422,#420,#423,.T.);
#357=EDGE_CURVE('',#418,#422,#424,.T.);
#358=EDGE_CURVE('',#422,#418,#425,.T.);
#359=EDGE_CURVE('',#417,#420,#426,.T.);
#360=EDGE_CURVE('',#414,#410,#427,.T.);
#361=EDGE_CURVE('',#409,#412,#428,.T.);
#362=EDGE_CURVE('',#429,#430,#431,.T.);
#363=EDGE_CURVE('',#429,#430,#432,.T.);
#364=EDGE_CURVE('',#433,#429,#434,.T.);
#365=EDGE_CURVE('',#435,#433,#436,.T.);
#366=EDGE_CURVE('',#437,#435,#438,.T.);
#367=EDGE_CURVE('',#430,#437,#439,.T.);
#368=EDGE_CURVE('',#433,#376,#440,.T.);
#369=EDGE_CURVE('',#393,#437,#441,.T.);
#370=EDGE_CURVE('',#401,#399,#442,.T.);
#371=EDGE_CURVE('',#392,#435,#443,.T.);
#372=EDGE_CURVE('',#404,#406,#444,.T.);
#373=EDGE_CURVE('',#387,#384,#445,.T.);
#374=EDGE_CURVE('',#389,#385,#446,.T.);
#375=EDGE_CURVE('',#435,#377,#447,.T.);
#376=VERTEX_POINT('',#448);
#377=VERTEX_POINT('',#449);
#378=LINE('',#450,#451);
#379=VERTEX_POINT('',#452);
#380=CIRCLE('',#453,16.0);
#381=VERTEX_POINT('',#454);
#382=(B_SPLINE_CURVE(2,(#456,#457,#458,#459,#460),.UNSPECIFIED.,.F.,.F.)B_SPLINE_CURVE_WITH_KNOTS((3,2,3),(0.0,12.0330539701854,24.0661079403709),.UNSPECIFIED.)RATIONAL_B_SPLINE_CURVE((1.0,1.10782341881398,1.0,1.10782341881398,1.0))BOUNDED_CURVE()REPRESENTATION_ITEM('')GEOMETRIC_REPRESENTATION_ITEM()CURVE());
#383=CIRCLE('',#467,11.0);
#384=VERTEX_POINT('',#468);
#385=VERTEX_POINT('',#469);
#386=LINE('',#470,#471);
#387=VERTEX_POINT('',#472);
#388=CIRCLE('',#473,20.0);
#389=VERTEX_POINT('',#474);
#390=LINE('',#475,#476);
#391=CIRCLE('',#477,20.0);
#392=VERTEX_POINT('',#478);
#393=VERTEX_POINT('',#479);
#394=LINE('',#480,#481);
#395=CIRCLE('',#482,11.0);
#396=VERTEX_POINT('',#483);
#397=(B_SPLINE_CURVE(2,(#485,#486,#487,#488,#489),.UNSPECIFIED.,.F.,.F.)B_SPLINE_CURVE_WITH_KNOTS((3,2,3),(0.0,12.0330539701854,24.0661079403709),.UNSPECIFIED.)RATIONAL_B_SPLINE_CURVE((1.0,1.10782341881398,1.0,1.10782341881398,1.0))BOUNDED_CURVE()REPRESENTATION_ITEM('')GEOMETRIC_REPRESENTATION_ITEM()CURVE());
#398=CIRCLE('',#496,16.0);
#399=VERTEX_POINT('',#497);
#400=LINE('',#498,#499);
#401=VERTEX_POINT('',#500);
#402=CIRCLE('',#501,16.0);
#403=LINE('',#502,#503);
#404=VERTEX_POINT('',#504);
#405=LINE('',#505,#506);
#406=VERTEX_POINT('',#507);
#407=CIRCLE('',#508,16.0);
#408=LINE('',#509,#510);
#409=VERTEX_POINT('',#511);
#410=VERTEX_POINT('',#512);
#411=LINE('',#513,#514);
#412=VERTEX_POINT('',#515);
#413=CIRCLE('',#516,8.0);
#414=VERTEX_POINT('',#517);
#415=LINE('',#518,#519);
#416=CIRCLE('',#520,8.0);
#417=VERTEX_POINT('',#521);
#418=VERTEX_POINT('',#522);
#419=LINE('',#523,#524);
#420=VERTEX_POINT('',#525);
#421=CIRCLE('',#526,8.0);
#422=VERTEX_POINT('',#527);
#423=LINE('',#528,#529);
#424=CIRCLE('',#530,8.0);
#425=CIRCLE('',#531,8.0);
#426=CIRCLE('',#532,8.0);
#427=CIRCLE('',#533,8.0);
#428=CIRCLE('',#534,8.0);
#429=VERTEX_POINT('',#535);
#430=VERTEX_POINT('',#536);
#431=CIRCLE('',#537,16.0);
#432=LINE('',#538,#539);
#433=VERTEX_POINT('',#540);
#434=LINE('',#541,#542);
#435=VERTEX_POINT('',#543);
#436=(B_SPLINE_CURVE(2,(#545,#546,#547,#548,#549),.UNSPECIFIED.,.F.,.F.)B_SPLINE_CURVE_WITH_KNOTS((3,2,3),(0.0,12.0330539701854,24.0661079403709),.UNSPECIFIED.)RATIONAL_B_SPLINE_CURVE((1.0,1.10782341881398,1.0,1.10782341881398,1.0))BOUNDED_CURVE()REPRESENTATION_ITEM('')GEOMETRIC_REPRESENTATION_ITEM()CURVE());
#437=VERTEX_POINT('',#556);
#438=(B_SPLINE_CURVE(2,(#558,#559,#560,#561,#562),.UNSPECIFIED.,.F.,.F.)B_SPLINE_CURVE_WITH_KNOTS((3,2,3),(0.0,12.0330539701854,24.0661079403709),.UNSPECIFIED.)RATIONAL_B_SPLINE_CURVE((1.0,1.10782341881398,1.0,1.10782341881398,1.0))BOUNDED_CURVE()REPRESENTATION_ITEM('')GEOMETRIC_REPRESENTATION_ITEM()CURVE());
#439=LINE('',#569,#570);
#440=CIRCLE('',#571,16.0);
#441=CIRCLE('',#572,16.0);
#442=CIRCLE('',#573,16.0);
#443=CIRCLE('',#574,11.0);
#444=LINE('',#575,#576);
#445=CIRCLE('',#577,20.0);
#446=CIRCLE('',#578,20.0);
#447=CIRCLE('',#579,11.0);
#448=CARTESIAN_POINT('',(6.9342510656875E-18,16.0,-32.1132486540519));
#449=CARTESIAN_POINT('',(7.95994129984545E-16,11.0,-35.0));
#450=CARTESIAN_POINT('',(4.01464190525116E-16,13.5,-33.5566243270259));
#451=VECTOR('',#580,1.0);
#452=CARTESIAN_POINT('',(11.0,11.6189500386223,-32.1132486540519));
#453=AXIS2_PLACEMENT_3D('',#581,#582,#583);
#454=CARTESIAN_POINT('',(11.0,0.0,-35.0));
#456=CARTESIAN_POINT('',(11.0,11.6189500386223,-32.1132486540519));
#457=CARTESIAN_POINT('',(11.0,4.73364631203132,-35.0));
#458=CARTESIAN_POINT('',(11.0,0.0,-35.0));
#459=CARTESIAN_POINT('',(11.0,-4.73364631203132,-35.0));
#460=CARTESIAN_POINT('',(11.0,-11.6189500386223,-32.1132486540519));
#467=AXIS2_PLACEMENT_3D('',#584,#585,#586);
#468=CARTESIAN_POINT('',(0.0,20.0,0.0));
#469=CARTESIAN_POINT('',(1.07153055959458E-16,20.0,-1.75));
#470=CARTESIAN_POINT('',(-2.39563617966503E-15,20.0,-0.875));
#471=VECTOR('',#587,1.0);
#472=CARTESIAN_POINT('',(2.44921270764475E-15,-20.0,1.49966072182214E-31));
#473=AXIS2_PLACEMENT_3D('',#588,#589,#590);
#474=CARTESIAN_POINT('',(2.55636576360421E-15,-20.0,-1.75));
#475=CARTESIAN_POINT('',(2.50278923562448E-15,-20.0,-0.875));
#476=VECTOR('',#591,1.0);
#477=AXIS2_PLACEMENT_3D('',#592,#593,#594);
#478=CARTESIAN_POINT('',(3.49012810839378E-15,-11.0,-35.0));
#479=CARTESIAN_POINT('',(3.92567458329729E-15,-16.0,-32.1132486540519));
#480=CARTESIAN_POINT('',(3.70790134584553E-15,-13.5,-33.5566243270259));
#481=VECTOR('',#595,1.0);
#482=AXIS2_PLACEMENT_3D('',#596,#597,#598);
#483=CARTESIAN_POINT('',(11.0,-11.6189500386223,-32.1132486540519));
#485=CARTESIAN_POINT('',(11.0,11.6189500386223,-32.1132486540519));
#486=CARTESIAN_POINT('',(11.0,4.73364631203132,-35.0));
#487=CARTESIAN_POINT('',(11.0,0.0,-35.0));
#488=CARTESIAN_POINT('',(11.0,-4.73364631203132,-35.0));
#489=CARTESIAN_POINT('',(11.0,-11.6189500386223,-32.1132486540519));
#496=AXIS2_PLACEMENT_3D('',#599,#600,#601);
#497=CARTESIAN_POINT('',(1.07153055959458E-16,16.0,-1.75));
#498=CARTESIAN_POINT('',(-9.22641429545329E-16,16.0,-16.9316243270259));
#499=VECTOR('',#602,1.0);
#500=CARTESIAN_POINT('',(2.06652322207526E-15,-16.0,-1.75));
#501=AXIS2_PLACEMENT_3D('',#603,#604,#605);
#502=CARTESIAN_POINT('',(2.99609890268628E-15,-16.0,-16.9316243270259));
#503=VECTOR('',#606,1.0);
#504=CARTESIAN_POINT('',(11.0,-11.6189500386223,-3.5));
#505=CARTESIAN_POINT('',(11.0,-11.6189500386223,-17.8066243270259));
#506=VECTOR('',#607,1.0);
#507=CARTESIAN_POINT('',(11.0,11.6189500386223,-3.5));
#508=AXIS2_PLACEMENT_3D('',#608,#609,#610);
#509=CARTESIAN_POINT('',(11.0,11.6189500386223,-17.8066243270259));
#510=VECTOR('',#611,1.0);
#511=CARTESIAN_POINT('',(11.0,-9.79685083057902E-16,-27.0));
#512=CARTESIAN_POINT('',(-11.0,-9.79685083057902E-16,-27.0));
#513=CARTESIAN_POINT('',(1.65321857766021E-15,-9.79685083057902E-16,-27.0));
#514=VECTOR('',#612,1.0);
#515=CARTESIAN_POINT('',(11.0,9.79685083057902E-16,-11.0));
#516=AXIS2_PLACEMENT_3D('',#613,#614,#615);
#517=CARTESIAN_POINT('',(-11.0,-9.79685083057902E-16,-11.0));
#518=CARTESIAN_POINT('',(6.73533494602307E-16,9.79685083057902E-16,-11.0));
#519=VECTOR('',#616,1.0);
#520=AXIS2_PLACEMENT_3D('',#617,#618,#619);
#521=CARTESIAN_POINT('',(8.0,-9.79685083057902E-16,4.89842541528951E-16));
#522=CARTESIAN_POINT('',(8.0,0.0,1.0));
#523=CARTESIAN_POINT('',(8.0,-9.79685083057902E-16,4.89842541528951E-16));
#524=VECTOR('',#620,1.0);
#525=CARTESIAN_POINT('',(-8.0,9.79685083057902E-16,-4.89842541528951E-16));
#526=AXIS2_PLACEMENT_3D('',#621,#622,#623);
#527=CARTESIAN_POINT('',(-8.0,9.79685083057902E-16,1.0));
#528=CARTESIAN_POINT('',(-8.0,9.79685083057902E-16,-4.89842541528951E-16));
#529=VECTOR('',#624,1.0);
#530=AXIS2_PLACEMENT_3D('',#625,#626,#627);
#531=AXIS2_PLACEMENT_3D('',#628,#629,#630);
#532=AXIS2_PLACEMENT_3D('',#631,#632,#633);
#533=AXIS2_PLACEMENT_3D('',#634,#635,#636);
#534=AXIS2_PLACEMENT_3D('',#637,#638,#639);
#535=CARTESIAN_POINT('',(-11.0,11.6189500386222,-3.5));
#536=CARTESIAN_POINT('',(-11.0,-11.6189500386223,-3.5));
#537=AXIS2_PLACEMENT_3D('',#640,#641,#642);
#538=CARTESIAN_POINT('',(-11.0,-1.34706698920461E-15,-3.5));
#539=VECTOR('',#643,1.0);
#540=CARTESIAN_POINT('',(-11.0,11.6189500386222,-32.1132486540519));
#541=CARTESIAN_POINT('',(-11.0,11.6189500386222,-17.8066243270259));
#542=VECTOR('',#644,1.0);
#543=CARTESIAN_POINT('',(-11.0,-1.34706698920461E-15,-35.0));
#545=CARTESIAN_POINT('',(-11.0,-11.6189500386223,-32.1132486540519));
#546=CARTESIAN_POINT('',(-11.0,-4.73364631203132,-35.0));
#547=CARTESIAN_POINT('',(-11.0,-1.34706698920462E-15,-35.0));
#548=CARTESIAN_POINT('',(-11.0,4.73364631203132,-35.0));
#549=CARTESIAN_POINT('',(-11.0,11.6189500386223,-32.1132486540519));
#556=CARTESIAN_POINT('',(-11.0,-11.6189500386223,-32.1132486540519));
#558=CARTESIAN_POINT('',(-11.0,-11.6189500386223,-32.1132486540519));
#559=CARTESIAN_POINT('',(-11.0,-4.73364631203132,-35.0));
#560=CARTESIAN_POINT('',(-11.0,-1.34706698920462E-15,-35.0));
#561=CARTESIAN_POINT('',(-11.0,4.73364631203132,-35.0));
#562=CARTESIAN_POINT('',(-11.0,11.6189500386223,-32.1132486540519));
#569=CARTESIAN_POINT('',(-11.0,-11.6189500386223,-17.8066243270259));
#570=VECTOR('',#645,1.0);
#571=AXIS2_PLACEMENT_3D('',#646,#647,#648);
#572=AXIS2_PLACEMENT_3D('',#649,#650,#651);
#573=AXIS2_PLACEMENT_3D('',#652,#653,#654);
#574=AXIS2_PLACEMENT_3D('',#655,#656,#657);
#575=CARTESIAN_POINT('',(11.0,0.0,-3.5));
#576=VECTOR('',#658,1.0);
#577=AXIS2_PLACEMENT_3D('',#659,#660,#661);
#578=AXIS2_PLACEMENT_3D('',#662,#663,#664);
#579=AXIS2_PLACEMENT_3D('',#665,#666,#667);
#580=DIRECTION('',(1.36669180050161E-16,-0.866025403784439,-0.5));
#581=CARTESIAN_POINT('',(1.96630441718149E-15,0.0,-32.1132486540519));
#582=DIRECTION('',(6.12303176911189E-17,0.0,-1.0));
#583=DIRECTION('',(0.0,1.0,0.0));
#584=CARTESIAN_POINT('',(2.14306111918916E-15,0.0,-35.0));
#585=DIRECTION('',(6.12303176911189E-17,0.0,-1.0));
#586=DIRECTION('',(0.0,1.0,0.0));
#587=DIRECTION('',(6.12303176911189E-17,0.0,-1.0));
#588=CARTESIAN_POINT('',(0.0,0.0,0.0));
#589=DIRECTION('',(6.12303176911189E-17,0.0,-1.0));
#590=DIRECTION('',(0.0,1.0,0.0));
#591=DIRECTION('',(-6.12303176911189E-17,-0.0,1.0));
#592=CARTESIAN_POINT('',(1.07153055959458E-16,0.0,-1.75));
#593=DIRECTION('',(6.12303176911189E-17,0.0,-1.0));
#594=DIRECTION('',(0.0,1.0,0.0));
#595=DIRECTION('',(7.5438862359042E-17,-0.866025403784439,0.5));
#596=CARTESIAN_POINT('',(2.14306111918916E-15,0.0,-35.0));
#597=DIRECTION('',(6.12303176911189E-17,0.0,-1.0));
#598=DIRECTION('',(0.0,1.0,0.0));
#599=CARTESIAN_POINT('',(1.96630441718149E-15,0.0,-32.1132486540519));
#600=DIRECTION('',(6.12303176911189E-17,0.0,-1.0));
#601=DIRECTION('',(0.0,1.0,0.0));
#602=DIRECTION('',(6.12303176911189E-17,0.0,-1.0));
#603=CARTESIAN_POINT('',(1.07153055959458E-16,0.0,-1.75));
#604=DIRECTION('',(6.12303176911189E-17,0.0,-1.0));
#605=DIRECTION('',(0.0,1.0,0.0));
#606=DIRECTION('',(-6.12303176911189E-17,-0.0,1.0));
#607=DIRECTION('',(-6.12303176911189E-17,-0.0,1.0));
#608=CARTESIAN_POINT('',(2.14306111918916E-16,0.0,-3.5));
#609=DIRECTION('',(-6.12303176911189E-17,0.0,1.0));
#610=DIRECTION('',(0.0,1.0,0.0));
#611=DIRECTION('',(6.12303176911189E-17,0.0,-1.0));
#612=DIRECTION('',(-1.0,0.0,-6.12303176911189E-17));
#613=CARTESIAN_POINT('',(11.0,0.0,-19.0));
#614=DIRECTION('',(-1.0,-0.0,-6.12303176911189E-17));
#615=DIRECTION('',(6.12303176911189E-17,0.0,-1.0));
#616=DIRECTION('',(1.0,0.0,6.12303176911189E-17));
#617=CARTESIAN_POINT('',(-11.0,0.0,-19.0));
#618=DIRECTION('',(1.0,1.22460635382238E-16,6.12303176911189E-17));
#619=DIRECTION('',(6.12303176911189E-17,0.0,-1.0));
#620=DIRECTION('',(-6.12303176911189E-17,0.0,1.0));
#621=CARTESIAN_POINT('',(0.0,0.0,0.0));
#622=DIRECTION('',(6.12303176911189E-17,0.0,-1.0));
#623=DIRECTION('',(1.0,0.0,6.12303176911189E-17));
#624=DIRECTION('',(6.12303176911189E-17,-0.0,-1.0));
#625=CARTESIAN_POINT('',(-6.12303176911189E-17,0.0,1.0));
#626=DIRECTION('',(-6.12303176911189E-17,0.0,1.0));
#627=DIRECTION('',(1.0,0.0,6.12303176911189E-17));
#628=CARTESIAN_POINT('',(-6.12303176911189E-17,0.0,1.0));
#629=DIRECTION('',(-6.12303176911189E-17,0.0,1.0));
#630=DIRECTION('',(1.0,0.0,6.12303176911189E-17));
#631=CARTESIAN_POINT('',(0.0,0.0,0.0));
#632=DIRECTION('',(6.12303176911189E-17,0.0,-1.0));
#633=DIRECTION('',(1.0,0.0,6.12303176911189E-17));
#634=CARTESIAN_POINT('',(-11.0,0.0,-19.0));
#635=DIRECTION('',(1.0,1.22460635382238E-16,6.12303176911189E-17));
#636=DIRECTION('',(6.12303176911189E-17,0.0,-1.0));
#637=CARTESIAN_POINT('',(11.0,0.0,-19.0));
#638=DIRECTION('',(-1.0,-0.0,-6.12303176911189E-17));
#639=DIRECTION('',(6.12303176911189E-17,0.0,-1.0));
#640=CARTESIAN_POINT('',(2.14306111918916E-16,0.0,-3.5));
#641=DIRECTION('',(-6.12303176911189E-17,0.0,1.0));
#642=DIRECTION('',(0.0,1.0,0.0));
#643=DIRECTION('',(1.22460635382238E-16,-1.0,7.49830360911069E-33));
#644=DIRECTION('',(-6.12303176911189E-17,-0.0,1.0));
#645=DIRECTION('',(6.12303176911189E-17,0.0,-1.0));
#646=CARTESIAN_POINT('',(1.96630441718149E-15,0.0,-32.1132486540519));
#647=DIRECTION('',(6.12303176911189E-17,0.0,-1.0));
#648=DIRECTION('',(0.0,1.0,0.0));
#649=CARTESIAN_POINT('',(1.96630441718149E-15,0.0,-32.1132486540519));
#650=DIRECTION('',(6.12303176911189E-17,0.0,-1.0));
#651=DIRECTION('',(0.0,1.0,0.0));
#652=CARTESIAN_POINT('',(1.07153055959458E-16,0.0,-1.75));
#653=DIRECTION('',(6.12303176911189E-17,0.0,-1.0));
#654=DIRECTION('',(0.0,1.0,0.0));
#655=CARTESIAN_POINT('',(2.14306111918916E-15,0.0,-35.0));
#656=DIRECTION('',(6.12303176911189E-17,0.0,-1.0));
#657=DIRECTION('',(0.0,1.0,0.0));
#658=DIRECTION('',(0.0,1.0,0.0));
#659=CARTESIAN_POINT('',(0.0,0.0,0.0));
#660=DIRECTION('',(6.12303176911189E-17,0.0,-1.0));
#661=DIRECTION('',(0.0,1.0,0.0));
#662=CARTESIAN_POINT('',(1.07153055959458E-16,0.0,-1.75));
#663=DIRECTION('',(6.12303176911189E-17,0.0,-1.0));
#664=DIRECTION('',(0.0,1.0,0.0));
#665=CARTESIAN_POINT('',(2.14306111918916E-15,0.0,-35.0));
#666=DIRECTION('',(6.12303176911189E-17,0.0,-1.0));
#667=DIRECTION('',(0.0,1.0,0.0));
ENDSEC;
END-ISO-10303-21;
