ISO-10303-21;
HEADER;
/****************************************************************
 * Generated by software with PDE/Lib inside                    *
 * PDElib Version v51a, created Tue 12/06/2005                  *
 * International Technegroup Inc. (www.iti-oh.com)              *
 ****************************************************************/
FILE_DESCRIPTION((''),'2;1');
FILE_NAME('I:\\Area Tecnica\\Disegni\\VARIE-3D\\Componenti\\2300\\2300_16.stp','2006-06-20T15:13:42',('maffial1'),(''),'Autodesk Inventor 11','Autodesk Inventor 11','');
FILE_SCHEMA(('AUTOMOTIVE_DESIGN { 1 0 10303 214 1 1 1 1 }'));
ENDSEC;
DATA;
#5=APPLICATION_CONTEXT('automotive design');
#6=APPLICATION_PROTOCOL_DEFINITION('Draft International Standard','automotive_design',1998,#5);
#7=PRODUCT_CONTEXT('None',#5,'mechanical');
#8=PRODUCT('2300_16','2300_16','None',(#7));
#9=PRODUCT_RELATED_PRODUCT_CATEGORY('part','description',(#8));
#10=PRODUCT_DEFINITION_FORMATION('None','None',#8);
#11=PRODUCT_DEFINITION_CONTEXT('part definition',#5,'design');
#12=PRODUCT_DEFINITION('None','None',#10,#11);
#18=(NAMED_UNIT(*)PLANE_ANGLE_UNIT()SI_UNIT($,.RADIAN.));
#19=DIMENSIONAL_EXPONENTS(0.0,0.0,0.0,0.0,0.0,0.0,0.0);
#20=PLANE_ANGLE_MEASURE_WITH_UNIT(PLANE_ANGLE_MEASURE(0.017453292500000),#18);
#24=(CONVERSION_BASED_UNIT('DEGREE',#20)NAMED_UNIT(#19)PLANE_ANGLE_UNIT());
#28=(NAMED_UNIT(*)SI_UNIT($,.STERADIAN.)SOLID_ANGLE_UNIT());
#32=(LENGTH_UNIT()NAMED_UNIT(*)SI_UNIT(.MILLI.,.METRE.));
#34=UNCERTAINTY_MEASURE_WITH_UNIT(LENGTH_MEASURE(0.010000000000000),#32,'DISTANCE_ACCURACY_VALUE','');
#36=(GEOMETRIC_REPRESENTATION_CONTEXT(3)GLOBAL_UNCERTAINTY_ASSIGNED_CONTEXT((#34))GLOBAL_UNIT_ASSIGNED_CONTEXT((#24,#28,#32))REPRESENTATION_CONTEXT('None','None'));
#37=AXIS2_PLACEMENT_3D('',#38,#39,#40);
#38=CARTESIAN_POINT('',(0.0,0.0,0.0));
#39=DIRECTION('',(0.0,0.0,1.0));
#40=DIRECTION('',(1.0,0.0,0.0));
#41=SHAPE_REPRESENTATION('',(#37),#36);
#42=PRODUCT_DEFINITION_SHAPE('','',#12);
#43=SHAPE_DEFINITION_REPRESENTATION(#42,#41);
#44=CARTESIAN_POINT('',(-23.000000000000004,10.0,0.0));
#45=DIRECTION('',(0.0,-1.0,0.0));
#46=DIRECTION('',(0.0,0.0,-1.0));
#47=AXIS2_PLACEMENT_3D('',#44,#45,#46);
#48=CYLINDRICAL_SURFACE('',#47,5.100000000000000);
#49=CARTESIAN_POINT('',(-23.000000000000004,8.800000000000001,5.099999999999998));
#50=VERTEX_POINT('',#49);
#51=CARTESIAN_POINT('',(-23.000000000000004,8.800000000000001,-5.100000000000001));
#52=VERTEX_POINT('',#51);
#53=CARTESIAN_POINT('',(-23.000000000000004,8.800000000000001,0.0));
#54=DIRECTION('',(0.0,1.0,0.0));
#55=DIRECTION('',(0.0,0.0,-1.0));
#56=AXIS2_PLACEMENT_3D('',#53,#54,#55);
#57=CIRCLE('',#56,5.100000000000000);
#58=EDGE_CURVE('',#50,#52,#57,.T.);
#59=ORIENTED_EDGE('',*,*,#58,.F.);
#60=CARTESIAN_POINT('',(-23.000000000000004,10.0,5.099999999999998));
#61=VERTEX_POINT('',#60);
#62=CARTESIAN_POINT('',(-23.000000000000004,10.0,5.099999999999998));
#63=DIRECTION('',(0.0,-1.0,0.0));
#64=VECTOR('',#63,1.199999999999999);
#65=LINE('',#62,#64);
#66=EDGE_CURVE('',#61,#50,#65,.T.);
#67=ORIENTED_EDGE('',*,*,#66,.F.);
#68=CARTESIAN_POINT('',(-23.000000000000004,10.0,-5.100000000000001));
#69=VERTEX_POINT('',#68);
#70=CARTESIAN_POINT('',(-23.000000000000004,10.0,0.0));
#71=DIRECTION('',(0.0,-1.0,0.0));
#72=DIRECTION('',(0.0,0.0,-1.0));
#73=AXIS2_PLACEMENT_3D('',#70,#71,#72);
#74=CIRCLE('',#73,5.100000000000000);
#75=EDGE_CURVE('',#69,#61,#74,.T.);
#76=ORIENTED_EDGE('',*,*,#75,.F.);
#77=CARTESIAN_POINT('',(-23.000000000000004,10.0,-5.100000000000001));
#78=DIRECTION('',(0.0,-1.0,0.0));
#79=VECTOR('',#78,1.199999999999999);
#80=LINE('',#77,#79);
#81=EDGE_CURVE('',#69,#52,#80,.T.);
#82=ORIENTED_EDGE('',*,*,#81,.T.);
#83=EDGE_LOOP('',(#59,#67,#76,#82));
#84=FACE_OUTER_BOUND('',#83,.T.);
#85=ADVANCED_FACE('',(#84),#48,.F.);
#86=CARTESIAN_POINT('',(-23.000000000000004,10.0,-5.100000000000001));
#87=DIRECTION('',(0.0,0.0,-1.0));
#88=DIRECTION('',(-1.0,0.0,0.0));
#89=AXIS2_PLACEMENT_3D('',#86,#87,#88);
#90=PLANE('',#89);
#91=CARTESIAN_POINT('',(-37.000000000000007,8.800000000000001,-5.099999999999998));
#92=VERTEX_POINT('',#91);
#93=CARTESIAN_POINT('',(-23.000000000000004,8.800000000000001,-5.100000000000001));
#94=DIRECTION('',(-1.0,0.0,0.0));
#95=VECTOR('',#94,14.000000000000004);
#96=LINE('',#93,#95);
#97=EDGE_CURVE('',#52,#92,#96,.T.);
#98=ORIENTED_EDGE('',*,*,#97,.F.);
#99=ORIENTED_EDGE('',*,*,#81,.F.);
#100=CARTESIAN_POINT('',(-37.000000000000007,10.0,-5.099999999999998));
#101=VERTEX_POINT('',#100);
#102=CARTESIAN_POINT('',(-37.000000000000007,10.0,-5.099999999999998));
#103=DIRECTION('',(1.0,0.0,0.0));
#104=VECTOR('',#103,14.000000000000004);
#105=LINE('',#102,#104);
#106=EDGE_CURVE('',#101,#69,#105,.T.);
#107=ORIENTED_EDGE('',*,*,#106,.F.);
#108=CARTESIAN_POINT('',(-37.000000000000007,10.0,-5.099999999999998));
#109=DIRECTION('',(0.0,-1.0,0.0));
#110=VECTOR('',#109,1.199999999999999);
#111=LINE('',#108,#110);
#112=EDGE_CURVE('',#101,#92,#111,.T.);
#113=ORIENTED_EDGE('',*,*,#112,.T.);
#114=EDGE_LOOP('',(#98,#99,#107,#113));
#115=FACE_OUTER_BOUND('',#114,.T.);
#116=ADVANCED_FACE('',(#115),#90,.F.);
#117=CARTESIAN_POINT('',(-37.0,10.0,0.0));
#118=DIRECTION('',(0.0,-1.0,0.0));
#119=DIRECTION('',(0.0,0.0,1.0));
#120=AXIS2_PLACEMENT_3D('',#117,#118,#119);
#121=CYLINDRICAL_SURFACE('',#120,5.099999999999999);
#122=CARTESIAN_POINT('',(-37.0,8.800000000000001,5.099999999999998));
#123=VERTEX_POINT('',#122);
#124=CARTESIAN_POINT('',(-37.0,8.800000000000001,0.0));
#125=DIRECTION('',(0.0,1.0,0.0));
#126=DIRECTION('',(0.0,0.0,1.0));
#127=AXIS2_PLACEMENT_3D('',#124,#125,#126);
#128=CIRCLE('',#127,5.099999999999999);
#129=EDGE_CURVE('',#92,#123,#128,.T.);
#130=ORIENTED_EDGE('',*,*,#129,.F.);
#131=ORIENTED_EDGE('',*,*,#112,.F.);
#132=CARTESIAN_POINT('',(-37.0,10.0,5.099999999999998));
#133=VERTEX_POINT('',#132);
#134=CARTESIAN_POINT('',(-37.0,10.0,0.0));
#135=DIRECTION('',(0.0,-1.0,0.0));
#136=DIRECTION('',(0.0,0.0,1.0));
#137=AXIS2_PLACEMENT_3D('',#134,#135,#136);
#138=CIRCLE('',#137,5.099999999999999);
#139=EDGE_CURVE('',#133,#101,#138,.T.);
#140=ORIENTED_EDGE('',*,*,#139,.F.);
#141=CARTESIAN_POINT('',(-37.0,10.0,5.099999999999998));
#142=DIRECTION('',(0.0,-1.0,0.0));
#143=VECTOR('',#142,1.199999999999999);
#144=LINE('',#141,#143);
#145=EDGE_CURVE('',#133,#123,#144,.T.);
#146=ORIENTED_EDGE('',*,*,#145,.T.);
#147=EDGE_LOOP('',(#130,#131,#140,#146));
#148=FACE_OUTER_BOUND('',#147,.T.);
#149=ADVANCED_FACE('',(#148),#121,.F.);
#150=CARTESIAN_POINT('',(-37.0,10.0,5.099999999999998));
#151=DIRECTION('',(0.0,0.0,1.0));
#152=DIRECTION('',(1.0,0.0,0.0));
#153=AXIS2_PLACEMENT_3D('',#150,#151,#152);
#154=PLANE('',#153);
#155=CARTESIAN_POINT('',(-37.0,8.800000000000001,5.099999999999998));
#156=DIRECTION('',(1.0,0.0,0.0));
#157=VECTOR('',#156,13.999999999999996);
#158=LINE('',#155,#157);
#159=EDGE_CURVE('',#123,#50,#158,.T.);
#160=ORIENTED_EDGE('',*,*,#159,.F.);
#161=ORIENTED_EDGE('',*,*,#145,.F.);
#162=CARTESIAN_POINT('',(-23.000000000000004,10.0,5.099999999999998));
#163=DIRECTION('',(-1.0,0.0,0.0));
#164=VECTOR('',#163,13.999999999999996);
#165=LINE('',#162,#164);
#166=EDGE_CURVE('',#61,#133,#165,.T.);
#167=ORIENTED_EDGE('',*,*,#166,.F.);
#168=ORIENTED_EDGE('',*,*,#66,.T.);
#169=EDGE_LOOP('',(#160,#161,#167,#168));
#170=FACE_OUTER_BOUND('',#169,.T.);
#171=ADVANCED_FACE('',(#170),#154,.F.);
#172=CARTESIAN_POINT('',(-30.0,8.800000000000001,-5.386370E-017));
#173=DIRECTION('',(0.0,1.0,0.0));
#174=DIRECTION('',(0.0,0.0,1.0));
#175=AXIS2_PLACEMENT_3D('',#172,#173,#174);
#176=PLANE('',#175);
#177=ORIENTED_EDGE('',*,*,#58,.T.);
#178=ORIENTED_EDGE('',*,*,#97,.T.);
#179=ORIENTED_EDGE('',*,*,#129,.T.);
#180=ORIENTED_EDGE('',*,*,#159,.T.);
#181=EDGE_LOOP('',(#177,#178,#179,#180));
#182=FACE_OUTER_BOUND('',#181,.T.);
#183=ADVANCED_FACE('',(#182),#176,.T.);
#184=CARTESIAN_POINT('',(-23.388714504439754,6.011528299011526,-6.000000000000001));
#185=DIRECTION('',(0.0,0.0,1.0));
#186=DIRECTION('',(1.0,0.0,0.0));
#187=AXIS2_PLACEMENT_3D('',#184,#185,#186);
#188=PLANE('',#187);
#189=CARTESIAN_POINT('',(0.0,0.0,-6.000000000000001));
#190=VERTEX_POINT('',#189);
#191=CARTESIAN_POINT('',(0.0,7.0,-6.000000000000001));
#192=VERTEX_POINT('',#191);
#193=CARTESIAN_POINT('',(0.0,0.0,-6.000000000000001));
#194=DIRECTION('',(0.0,1.0,0.0));
#195=VECTOR('',#194,7.0);
#196=LINE('',#193,#195);
#197=EDGE_CURVE('',#190,#192,#196,.T.);
#198=ORIENTED_EDGE('',*,*,#197,.F.);
#199=CARTESIAN_POINT('',(-5.0,0.0,-6.000000000000001));
#200=VERTEX_POINT('',#199);
#201=CARTESIAN_POINT('',(-5.0,0.0,-6.000000000000001));
#202=DIRECTION('',(1.0,0.0,0.0));
#203=VECTOR('',#202,5.0);
#204=LINE('',#201,#203);
#205=EDGE_CURVE('',#200,#190,#204,.T.);
#206=ORIENTED_EDGE('',*,*,#205,.F.);
#207=CARTESIAN_POINT('',(-5.0,5.0,-6.000000000000001));
#208=VERTEX_POINT('',#207);
#209=CARTESIAN_POINT('',(-5.0,5.0,-6.000000000000001));
#210=DIRECTION('',(0.0,-1.0,0.0));
#211=VECTOR('',#210,5.0);
#212=LINE('',#209,#211);
#213=EDGE_CURVE('',#208,#200,#212,.T.);
#214=ORIENTED_EDGE('',*,*,#213,.F.);
#215=CARTESIAN_POINT('',(-41.0,5.0,-6.000000000000001));
#216=VERTEX_POINT('',#215);
#217=CARTESIAN_POINT('',(-41.0,5.0,-6.000000000000001));
#218=DIRECTION('',(1.0,0.0,0.0));
#219=VECTOR('',#218,36.0);
#220=LINE('',#217,#219);
#221=EDGE_CURVE('',#216,#208,#220,.T.);
#222=ORIENTED_EDGE('',*,*,#221,.F.);
#223=CARTESIAN_POINT('',(-41.0,3.0,-6.000000000000001));
#224=VERTEX_POINT('',#223);
#225=CARTESIAN_POINT('',(-41.0,3.0,-6.000000000000001));
#226=DIRECTION('',(0.0,1.0,0.0));
#227=VECTOR('',#226,2.0);
#228=LINE('',#225,#227);
#229=EDGE_CURVE('',#224,#216,#228,.T.);
#230=ORIENTED_EDGE('',*,*,#229,.F.);
#231=CARTESIAN_POINT('',(-39.0,2.464101615137755,-6.000000000000001));
#232=VERTEX_POINT('',#231);
#233=CARTESIAN_POINT('',(-39.0,2.464101615137755,-6.000000000000001));
#234=DIRECTION('',(-0.965925826289068,0.258819045102520,0.0));
#235=VECTOR('',#234,2.070552360820166);
#236=LINE('',#233,#235);
#237=EDGE_CURVE('',#232,#224,#236,.T.);
#238=ORIENTED_EDGE('',*,*,#237,.F.);
#239=CARTESIAN_POINT('',(-39.0,0.535898384862244,-6.000000000000001));
#240=VERTEX_POINT('',#239);
#241=CARTESIAN_POINT('',(-39.0,0.535898384862244,-6.000000000000001));
#242=DIRECTION('',(0.0,1.0,0.0));
#243=VECTOR('',#242,1.928203230275511);
#244=LINE('',#241,#243);
#245=EDGE_CURVE('',#240,#232,#244,.T.);
#246=ORIENTED_EDGE('',*,*,#245,.F.);
#247=CARTESIAN_POINT('',(-41.0,-7.305045E-017,-6.000000000000001));
#248=VERTEX_POINT('',#247);
#249=CARTESIAN_POINT('',(-41.0,-7.305045E-017,-6.000000000000001));
#250=DIRECTION('',(0.965925826289069,0.258819045102520,0.0));
#251=VECTOR('',#250,2.070552360820166);
#252=LINE('',#249,#251);
#253=EDGE_CURVE('',#248,#240,#252,.T.);
#254=ORIENTED_EDGE('',*,*,#253,.F.);
#255=CARTESIAN_POINT('',(-46.000000000000007,0.0,-6.000000000000001));
#256=VERTEX_POINT('',#255);
#257=CARTESIAN_POINT('',(-46.000000000000007,0.0,-6.000000000000001));
#258=DIRECTION('',(1.0,0.0,0.0));
#259=VECTOR('',#258,5.000000000000007);
#260=LINE('',#257,#259);
#261=EDGE_CURVE('',#256,#248,#260,.T.);
#262=ORIENTED_EDGE('',*,*,#261,.F.);
#263=CARTESIAN_POINT('',(-46.000000000000007,7.000000000000001,-6.000000000000001));
#264=VERTEX_POINT('',#263);
#265=CARTESIAN_POINT('',(-46.000000000000007,7.000000000000001,-6.000000000000001));
#266=DIRECTION('',(0.0,-1.0,0.0));
#267=VECTOR('',#266,7.000000000000001);
#268=LINE('',#265,#267);
#269=EDGE_CURVE('',#264,#256,#268,.T.);
#270=ORIENTED_EDGE('',*,*,#269,.F.);
#271=CARTESIAN_POINT('',(-43.000000000000007,10.0,-6.000000000000001));
#272=VERTEX_POINT('',#271);
#273=CARTESIAN_POINT('',(-43.000000000000007,10.0,-6.000000000000001));
#274=DIRECTION('',(-0.707106781186548,-0.707106781186548,0.0));
#275=VECTOR('',#274,4.242640687119284);
#276=LINE('',#273,#275);
#277=EDGE_CURVE('',#272,#264,#276,.T.);
#278=ORIENTED_EDGE('',*,*,#277,.F.);
#279=CARTESIAN_POINT('',(-2.999999999999998,10.0,-6.000000000000001));
#280=VERTEX_POINT('',#279);
#281=CARTESIAN_POINT('',(-2.999999999999998,10.0,-6.000000000000001));
#282=DIRECTION('',(-1.0,0.0,0.0));
#283=VECTOR('',#282,40.000000000000007);
#284=LINE('',#281,#283);
#285=EDGE_CURVE('',#280,#272,#284,.T.);
#286=ORIENTED_EDGE('',*,*,#285,.F.);
#287=CARTESIAN_POINT('',(0.0,7.0,-6.000000000000001));
#288=DIRECTION('',(-0.707106781186547,0.707106781186548,0.0));
#289=VECTOR('',#288,4.242640687119284);
#290=LINE('',#287,#289);
#291=EDGE_CURVE('',#192,#280,#290,.T.);
#292=ORIENTED_EDGE('',*,*,#291,.F.);
#293=EDGE_LOOP('',(#198,#206,#214,#222,#230,#238,#246,#254,#262,#270,#278,#286,#292));
#294=FACE_OUTER_BOUND('',#293,.T.);
#295=ADVANCED_FACE('',(#294),#188,.F.);
#296=CARTESIAN_POINT('',(-5.0,0.0,0.0));
#297=DIRECTION('',(-1.0,0.0,0.0));
#298=DIRECTION('',(0.0,0.0,1.0));
#299=AXIS2_PLACEMENT_3D('',#296,#297,#298);
#300=PLANE('',#299);
#301=CARTESIAN_POINT('',(-5.0,0.0,6.000000000000001));
#302=VERTEX_POINT('',#301);
#303=CARTESIAN_POINT('',(-5.0,5.0,6.000000000000001));
#304=VERTEX_POINT('',#303);
#305=CARTESIAN_POINT('',(-5.0,0.0,6.000000000000001));
#306=DIRECTION('',(0.0,1.0,0.0));
#307=VECTOR('',#306,5.0);
#308=LINE('',#305,#307);
#309=EDGE_CURVE('',#302,#304,#308,.T.);
#310=ORIENTED_EDGE('',*,*,#309,.T.);
#311=CARTESIAN_POINT('',(-5.0,5.0,-6.000000000000001));
#312=DIRECTION('',(0.0,0.0,1.0));
#313=VECTOR('',#312,12.000000000000002);
#314=LINE('',#311,#313);
#315=EDGE_CURVE('',#208,#304,#314,.T.);
#316=ORIENTED_EDGE('',*,*,#315,.F.);
#317=ORIENTED_EDGE('',*,*,#213,.T.);
#318=CARTESIAN_POINT('',(-5.0,0.0,6.000000000000001));
#319=DIRECTION('',(0.0,0.0,-1.0));
#320=VECTOR('',#319,12.000000000000002);
#321=LINE('',#318,#320);
#322=EDGE_CURVE('',#302,#200,#321,.T.);
#323=ORIENTED_EDGE('',*,*,#322,.F.);
#324=EDGE_LOOP('',(#310,#316,#317,#323));
#325=FACE_OUTER_BOUND('',#324,.T.);
#326=ADVANCED_FACE('',(#325),#300,.T.);
#327=CARTESIAN_POINT('',(-5.0,5.0,0.0));
#328=DIRECTION('',(0.0,-1.0,0.0));
#329=DIRECTION('',(0.0,0.0,-1.0));
#330=AXIS2_PLACEMENT_3D('',#327,#328,#329);
#331=PLANE('',#330);
#332=CARTESIAN_POINT('',(-41.0,5.0,6.000000000000001));
#333=VERTEX_POINT('',#332);
#334=CARTESIAN_POINT('',(-5.0,5.0,6.000000000000001));
#335=DIRECTION('',(-1.0,0.0,0.0));
#336=VECTOR('',#335,36.0);
#337=LINE('',#334,#336);
#338=EDGE_CURVE('',#304,#333,#337,.T.);
#339=ORIENTED_EDGE('',*,*,#338,.T.);
#340=CARTESIAN_POINT('',(-41.0,5.0,-6.000000000000001));
#341=DIRECTION('',(0.0,0.0,1.0));
#342=VECTOR('',#341,12.000000000000002);
#343=LINE('',#340,#342);
#344=EDGE_CURVE('',#216,#333,#343,.T.);
#345=ORIENTED_EDGE('',*,*,#344,.F.);
#346=ORIENTED_EDGE('',*,*,#221,.T.);
#347=ORIENTED_EDGE('',*,*,#315,.T.);
#348=EDGE_LOOP('',(#339,#345,#346,#347));
#349=FACE_OUTER_BOUND('',#348,.T.);
#350=ADVANCED_FACE('',(#349),#331,.T.);
#351=CARTESIAN_POINT('',(-41.0,5.0,0.0));
#352=DIRECTION('',(1.0,0.0,0.0));
#353=DIRECTION('',(0.0,0.0,-1.0));
#354=AXIS2_PLACEMENT_3D('',#351,#352,#353);
#355=PLANE('',#354);
#356=CARTESIAN_POINT('',(-41.0,3.0,6.000000000000001));
#357=VERTEX_POINT('',#356);
#358=CARTESIAN_POINT('',(-41.0,5.0,6.000000000000001));
#359=DIRECTION('',(0.0,-1.0,0.0));
#360=VECTOR('',#359,2.0);
#361=LINE('',#358,#360);
#362=EDGE_CURVE('',#333,#357,#361,.T.);
#363=ORIENTED_EDGE('',*,*,#362,.T.);
#364=CARTESIAN_POINT('',(-41.0,3.0,-6.000000000000001));
#365=DIRECTION('',(0.0,0.0,1.0));
#366=VECTOR('',#365,12.000000000000002);
#367=LINE('',#364,#366);
#368=EDGE_CURVE('',#224,#357,#367,.T.);
#369=ORIENTED_EDGE('',*,*,#368,.F.);
#370=ORIENTED_EDGE('',*,*,#229,.T.);
#371=ORIENTED_EDGE('',*,*,#344,.T.);
#372=EDGE_LOOP('',(#363,#369,#370,#371));
#373=FACE_OUTER_BOUND('',#372,.T.);
#374=ADVANCED_FACE('',(#373),#355,.T.);
#375=CARTESIAN_POINT('',(-41.0,3.0,0.0));
#376=DIRECTION('',(0.258819045102521,0.965925826289068,0.0));
#377=DIRECTION('',(0.0,0.0,1.0));
#378=AXIS2_PLACEMENT_3D('',#375,#376,#377);
#379=PLANE('',#378);
#380=CARTESIAN_POINT('',(-39.0,2.464101615137755,6.000000000000001));
#381=VERTEX_POINT('',#380);
#382=CARTESIAN_POINT('',(-41.0,3.0,6.000000000000001));
#383=DIRECTION('',(0.965925826289068,-0.258819045102520,0.0));
#384=VECTOR('',#383,2.070552360820166);
#385=LINE('',#382,#384);
#386=EDGE_CURVE('',#357,#381,#385,.T.);
#387=ORIENTED_EDGE('',*,*,#386,.T.);
#388=CARTESIAN_POINT('',(-39.0,2.464101615137755,-6.000000000000001));
#389=DIRECTION('',(0.0,0.0,1.0));
#390=VECTOR('',#389,12.000000000000002);
#391=LINE('',#388,#390);
#392=EDGE_CURVE('',#232,#381,#391,.T.);
#393=ORIENTED_EDGE('',*,*,#392,.F.);
#394=ORIENTED_EDGE('',*,*,#237,.T.);
#395=ORIENTED_EDGE('',*,*,#368,.T.);
#396=EDGE_LOOP('',(#387,#393,#394,#395));
#397=FACE_OUTER_BOUND('',#396,.T.);
#398=ADVANCED_FACE('',(#397),#379,.T.);
#399=CARTESIAN_POINT('',(-39.0,2.464101615137755,0.0));
#400=DIRECTION('',(1.0,0.0,0.0));
#401=DIRECTION('',(0.0,0.0,-1.0));
#402=AXIS2_PLACEMENT_3D('',#399,#400,#401);
#403=PLANE('',#402);
#404=CARTESIAN_POINT('',(-39.0,0.535898384862244,6.000000000000001));
#405=VERTEX_POINT('',#404);
#406=CARTESIAN_POINT('',(-39.0,2.464101615137755,6.000000000000001));
#407=DIRECTION('',(0.0,-1.0,0.0));
#408=VECTOR('',#407,1.928203230275511);
#409=LINE('',#406,#408);
#410=EDGE_CURVE('',#381,#405,#409,.T.);
#411=ORIENTED_EDGE('',*,*,#410,.T.);
#412=CARTESIAN_POINT('',(-39.0,0.535898384862244,-6.000000000000001));
#413=DIRECTION('',(0.0,0.0,1.0));
#414=VECTOR('',#413,12.000000000000002);
#415=LINE('',#412,#414);
#416=EDGE_CURVE('',#240,#405,#415,.T.);
#417=ORIENTED_EDGE('',*,*,#416,.F.);
#418=ORIENTED_EDGE('',*,*,#245,.T.);
#419=ORIENTED_EDGE('',*,*,#392,.T.);
#420=EDGE_LOOP('',(#411,#417,#418,#419));
#421=FACE_OUTER_BOUND('',#420,.T.);
#422=ADVANCED_FACE('',(#421),#403,.T.);
#423=CARTESIAN_POINT('',(-39.0,0.535898384862244,0.0));
#424=DIRECTION('',(0.258819045102521,-0.965925826289068,0.0));
#425=DIRECTION('',(0.0,0.0,-1.0));
#426=AXIS2_PLACEMENT_3D('',#423,#424,#425);
#427=PLANE('',#426);
#428=CARTESIAN_POINT('',(-41.0,-7.305045E-017,6.000000000000001));
#429=VERTEX_POINT('',#428);
#430=CARTESIAN_POINT('',(-39.0,0.535898384862244,6.000000000000001));
#431=DIRECTION('',(-0.965925826289069,-0.258819045102520,0.0));
#432=VECTOR('',#431,2.070552360820166);
#433=LINE('',#430,#432);
#434=EDGE_CURVE('',#405,#429,#433,.T.);
#435=ORIENTED_EDGE('',*,*,#434,.T.);
#436=CARTESIAN_POINT('',(-41.0,-7.305045E-017,-6.000000000000001));
#437=DIRECTION('',(0.0,0.0,1.0));
#438=VECTOR('',#437,12.000000000000002);
#439=LINE('',#436,#438);
#440=EDGE_CURVE('',#248,#429,#439,.T.);
#441=ORIENTED_EDGE('',*,*,#440,.F.);
#442=ORIENTED_EDGE('',*,*,#253,.T.);
#443=ORIENTED_EDGE('',*,*,#416,.T.);
#444=EDGE_LOOP('',(#435,#441,#442,#443));
#445=FACE_OUTER_BOUND('',#444,.T.);
#446=ADVANCED_FACE('',(#445),#427,.T.);
#447=CARTESIAN_POINT('',(-41.0,-7.305045E-017,0.0));
#448=DIRECTION('',(0.0,-1.0,0.0));
#449=DIRECTION('',(0.0,0.0,-1.0));
#450=AXIS2_PLACEMENT_3D('',#447,#448,#449);
#451=PLANE('',#450);
#452=CARTESIAN_POINT('',(-46.000000000000007,0.0,6.000000000000001));
#453=VERTEX_POINT('',#452);
#454=CARTESIAN_POINT('',(-41.0,-7.305045E-017,6.000000000000001));
#455=DIRECTION('',(-1.0,0.0,0.0));
#456=VECTOR('',#455,5.000000000000007);
#457=LINE('',#454,#456);
#458=EDGE_CURVE('',#429,#453,#457,.T.);
#459=ORIENTED_EDGE('',*,*,#458,.T.);
#460=CARTESIAN_POINT('',(-46.000000000000007,0.0,-6.000000000000001));
#461=DIRECTION('',(0.0,0.0,1.0));
#462=VECTOR('',#461,12.000000000000002);
#463=LINE('',#460,#462);
#464=EDGE_CURVE('',#256,#453,#463,.T.);
#465=ORIENTED_EDGE('',*,*,#464,.F.);
#466=ORIENTED_EDGE('',*,*,#261,.T.);
#467=ORIENTED_EDGE('',*,*,#440,.T.);
#468=EDGE_LOOP('',(#459,#465,#466,#467));
#469=FACE_OUTER_BOUND('',#468,.T.);
#470=ADVANCED_FACE('',(#469),#451,.T.);
#471=CARTESIAN_POINT('',(-46.000000000000007,0.0,0.0));
#472=DIRECTION('',(-1.0,0.0,0.0));
#473=DIRECTION('',(0.0,0.0,1.0));
#474=AXIS2_PLACEMENT_3D('',#471,#472,#473);
#475=PLANE('',#474);
#476=CARTESIAN_POINT('',(-46.000000000000007,7.000000000000001,6.000000000000001));
#477=VERTEX_POINT('',#476);
#478=CARTESIAN_POINT('',(-46.000000000000007,0.0,6.000000000000001));
#479=DIRECTION('',(0.0,1.0,0.0));
#480=VECTOR('',#479,7.000000000000001);
#481=LINE('',#478,#480);
#482=EDGE_CURVE('',#453,#477,#481,.T.);
#483=ORIENTED_EDGE('',*,*,#482,.T.);
#484=CARTESIAN_POINT('',(-46.000000000000007,7.000000000000001,-6.000000000000001));
#485=DIRECTION('',(0.0,0.0,1.0));
#486=VECTOR('',#485,12.000000000000002);
#487=LINE('',#484,#486);
#488=EDGE_CURVE('',#264,#477,#487,.T.);
#489=ORIENTED_EDGE('',*,*,#488,.F.);
#490=ORIENTED_EDGE('',*,*,#269,.T.);
#491=ORIENTED_EDGE('',*,*,#464,.T.);
#492=EDGE_LOOP('',(#483,#489,#490,#491));
#493=FACE_OUTER_BOUND('',#492,.T.);
#494=ADVANCED_FACE('',(#493),#475,.T.);
#495=CARTESIAN_POINT('',(-46.000000000000007,7.000000000000001,0.0));
#496=DIRECTION('',(-0.707106781186548,0.707106781186547,0.0));
#497=DIRECTION('',(0.0,0.0,1.0));
#498=AXIS2_PLACEMENT_3D('',#495,#496,#497);
#499=PLANE('',#498);
#500=CARTESIAN_POINT('',(-43.000000000000007,10.0,6.000000000000001));
#501=VERTEX_POINT('',#500);
#502=CARTESIAN_POINT('',(-46.000000000000007,7.000000000000001,6.000000000000001));
#503=DIRECTION('',(0.707106781186548,0.707106781186548,0.0));
#504=VECTOR('',#503,4.242640687119284);
#505=LINE('',#502,#504);
#506=EDGE_CURVE('',#477,#501,#505,.T.);
#507=ORIENTED_EDGE('',*,*,#506,.T.);
#508=CARTESIAN_POINT('',(-43.000000000000007,10.0,-6.000000000000001));
#509=DIRECTION('',(0.0,0.0,1.0));
#510=VECTOR('',#509,12.000000000000002);
#511=LINE('',#508,#510);
#512=EDGE_CURVE('',#272,#501,#511,.T.);
#513=ORIENTED_EDGE('',*,*,#512,.F.);
#514=ORIENTED_EDGE('',*,*,#277,.T.);
#515=ORIENTED_EDGE('',*,*,#488,.T.);
#516=EDGE_LOOP('',(#507,#513,#514,#515));
#517=FACE_OUTER_BOUND('',#516,.T.);
#518=ADVANCED_FACE('',(#517),#499,.T.);
#519=CARTESIAN_POINT('',(-43.000000000000007,10.0,0.0));
#520=DIRECTION('',(0.0,1.0,0.0));
#521=DIRECTION('',(0.0,0.0,1.0));
#522=AXIS2_PLACEMENT_3D('',#519,#520,#521);
#523=PLANE('',#522);
#524=CARTESIAN_POINT('',(-2.999999999999998,10.0,6.000000000000001));
#525=VERTEX_POINT('',#524);
#526=CARTESIAN_POINT('',(-43.000000000000007,10.0,6.000000000000001));
#527=DIRECTION('',(1.0,0.0,0.0));
#528=VECTOR('',#527,40.000000000000007);
#529=LINE('',#526,#528);
#530=EDGE_CURVE('',#501,#525,#529,.T.);
#531=ORIENTED_EDGE('',*,*,#530,.T.);
#532=CARTESIAN_POINT('',(-2.999999999999998,10.0,-6.000000000000001));
#533=DIRECTION('',(0.0,0.0,1.0));
#534=VECTOR('',#533,12.000000000000002);
#535=LINE('',#532,#534);
#536=EDGE_CURVE('',#280,#525,#535,.T.);
#537=ORIENTED_EDGE('',*,*,#536,.F.);
#538=ORIENTED_EDGE('',*,*,#285,.T.);
#539=ORIENTED_EDGE('',*,*,#512,.T.);
#540=EDGE_LOOP('',(#531,#537,#538,#539));
#541=FACE_OUTER_BOUND('',#540,.T.);
#542=ORIENTED_EDGE('',*,*,#75,.T.);
#543=ORIENTED_EDGE('',*,*,#166,.T.);
#544=ORIENTED_EDGE('',*,*,#139,.T.);
#545=ORIENTED_EDGE('',*,*,#106,.T.);
#546=EDGE_LOOP('',(#542,#543,#544,#545));
#547=FACE_BOUND('',#546,.T.);
#548=ADVANCED_FACE('',(#541,#547),#523,.T.);
#549=CARTESIAN_POINT('',(-2.999999999999998,10.0,0.0));
#550=DIRECTION('',(0.707106781186548,0.707106781186547,0.0));
#551=DIRECTION('',(0.0,0.0,-1.0));
#552=AXIS2_PLACEMENT_3D('',#549,#550,#551);
#553=PLANE('',#552);
#554=CARTESIAN_POINT('',(0.0,7.0,6.000000000000001));
#555=VERTEX_POINT('',#554);
#556=CARTESIAN_POINT('',(-2.999999999999998,10.0,6.000000000000001));
#557=DIRECTION('',(0.707106781186547,-0.707106781186548,0.0));
#558=VECTOR('',#557,4.242640687119284);
#559=LINE('',#556,#558);
#560=EDGE_CURVE('',#525,#555,#559,.T.);
#561=ORIENTED_EDGE('',*,*,#560,.T.);
#562=CARTESIAN_POINT('',(0.0,7.0,-6.000000000000001));
#563=DIRECTION('',(0.0,0.0,1.0));
#564=VECTOR('',#563,12.000000000000002);
#565=LINE('',#562,#564);
#566=EDGE_CURVE('',#192,#555,#565,.T.);
#567=ORIENTED_EDGE('',*,*,#566,.F.);
#568=ORIENTED_EDGE('',*,*,#291,.T.);
#569=ORIENTED_EDGE('',*,*,#536,.T.);
#570=EDGE_LOOP('',(#561,#567,#568,#569));
#571=FACE_OUTER_BOUND('',#570,.T.);
#572=ADVANCED_FACE('',(#571),#553,.T.);
#573=CARTESIAN_POINT('',(0.0,7.0,0.0));
#574=DIRECTION('',(1.0,0.0,0.0));
#575=DIRECTION('',(0.0,0.0,-1.0));
#576=AXIS2_PLACEMENT_3D('',#573,#574,#575);
#577=PLANE('',#576);
#578=CARTESIAN_POINT('',(0.0,0.0,6.000000000000001));
#579=VERTEX_POINT('',#578);
#580=CARTESIAN_POINT('',(0.0,7.0,6.000000000000001));
#581=DIRECTION('',(0.0,-1.0,0.0));
#582=VECTOR('',#581,7.0);
#583=LINE('',#580,#582);
#584=EDGE_CURVE('',#555,#579,#583,.T.);
#585=ORIENTED_EDGE('',*,*,#584,.T.);
#586=CARTESIAN_POINT('',(0.0,0.0,-6.000000000000001));
#587=DIRECTION('',(0.0,0.0,1.0));
#588=VECTOR('',#587,12.000000000000002);
#589=LINE('',#586,#588);
#590=EDGE_CURVE('',#190,#579,#589,.T.);
#591=ORIENTED_EDGE('',*,*,#590,.F.);
#592=ORIENTED_EDGE('',*,*,#197,.T.);
#593=ORIENTED_EDGE('',*,*,#566,.T.);
#594=EDGE_LOOP('',(#585,#591,#592,#593));
#595=FACE_OUTER_BOUND('',#594,.T.);
#596=ADVANCED_FACE('',(#595),#577,.T.);
#597=CARTESIAN_POINT('',(0.0,0.0,0.0));
#598=DIRECTION('',(0.0,-1.0,0.0));
#599=DIRECTION('',(0.0,0.0,-1.0));
#600=AXIS2_PLACEMENT_3D('',#597,#598,#599);
#601=PLANE('',#600);
#602=CARTESIAN_POINT('',(0.0,0.0,6.000000000000001));
#603=DIRECTION('',(-1.0,0.0,0.0));
#604=VECTOR('',#603,5.0);
#605=LINE('',#602,#604);
#606=EDGE_CURVE('',#579,#302,#605,.T.);
#607=ORIENTED_EDGE('',*,*,#606,.T.);
#608=ORIENTED_EDGE('',*,*,#322,.T.);
#609=ORIENTED_EDGE('',*,*,#205,.T.);
#610=ORIENTED_EDGE('',*,*,#590,.T.);
#611=EDGE_LOOP('',(#607,#608,#609,#610));
#612=FACE_OUTER_BOUND('',#611,.T.);
#613=ADVANCED_FACE('',(#612),#601,.T.);
#614=CARTESIAN_POINT('',(-23.388714504439754,6.011528299011526,6.000000000000001));
#615=DIRECTION('',(0.0,0.0,1.0));
#616=DIRECTION('',(1.0,0.0,0.0));
#617=AXIS2_PLACEMENT_3D('',#614,#615,#616);
#618=PLANE('',#617);
#619=ORIENTED_EDGE('',*,*,#309,.F.);
#620=ORIENTED_EDGE('',*,*,#606,.F.);
#621=ORIENTED_EDGE('',*,*,#584,.F.);
#622=ORIENTED_EDGE('',*,*,#560,.F.);
#623=ORIENTED_EDGE('',*,*,#530,.F.);
#624=ORIENTED_EDGE('',*,*,#506,.F.);
#625=ORIENTED_EDGE('',*,*,#482,.F.);
#626=ORIENTED_EDGE('',*,*,#458,.F.);
#627=ORIENTED_EDGE('',*,*,#434,.F.);
#628=ORIENTED_EDGE('',*,*,#410,.F.);
#629=ORIENTED_EDGE('',*,*,#386,.F.);
#630=ORIENTED_EDGE('',*,*,#362,.F.);
#631=ORIENTED_EDGE('',*,*,#338,.F.);
#632=EDGE_LOOP('',(#619,#620,#621,#622,#623,#624,#625,#626,#627,#628,#629,#630,#631));
#633=FACE_OUTER_BOUND('',#632,.T.);
#634=ADVANCED_FACE('',(#633),#618,.T.);
#635=CLOSED_SHELL('',(#85,#116,#149,#171,#183,#295,#326,#350,#374,#398,#422,#446,#470,#494,#518,#548,#572,#596,#613,#634));
#636=MANIFOLD_SOLID_BREP('',#635);
#637=COLOUR_RGB('Alluminio anodizz. neutro',0.498039007186890,0.498039007186890,0.498039007186890);
#638=FILL_AREA_STYLE_COLOUR('Alluminio anodizz. neutro',#637);
#639=FILL_AREA_STYLE('Alluminio anodizz. neutro',(#638));
#640=SURFACE_STYLE_FILL_AREA(#639);
#641=SURFACE_SIDE_STYLE('Alluminio anodizz. neutro',(#640));
#642=SURFACE_STYLE_USAGE(.BOTH.,#641);
#643=PRESENTATION_STYLE_ASSIGNMENT((#642));
#644=STYLED_ITEM('',(#643),#636);
#645=MECHANICAL_DESIGN_GEOMETRIC_PRESENTATION_REPRESENTATION('',(#644),#36);
#646=ADVANCED_BREP_SHAPE_REPRESENTATION('ABSR',(#636),#36);
#647=SHAPE_REPRESENTATION_RELATIONSHIP('SRR','None',#646,#41);
ENDSEC;
END-ISO-10303-21;
