ISO-10303-21;
HEADER;
/****************************************************************
 * Generated by software with PDE/Lib inside                    *
 * PDE/Lib Version 3.2.2, created Thu Mar 23, 2000 at 18:38:49  *
 * International Technegroup Inc. (www.iti-oh.com)              *
 ****************************************************************/
FILE_DESCRIPTION((''),'2;1');
FILE_NAME('DF851.stp','2003-01-03T02:02:59',('Branislav Petkovic'),('AZ Pneumatica'),'AutoCAD STEP 2000i','AutoCAD 2000i','Via J. F. Kennedy, 26, 20020 Misinto (MI), ITALY');
FILE_SCHEMA(('CONFIG_CONTROL_DESIGN'));
ENDSEC;
DATA;
#8=(NAMED_UNIT(*)PLANE_ANGLE_UNIT()SI_UNIT($,.RADIAN.));
#9=DIMENSIONAL_EXPONENTS(0.0,0.0,0.0,0.0,0.0,0.0,0.0);
#10=PLANE_ANGLE_MEASURE_WITH_UNIT(PLANE_ANGLE_MEASURE(0.017453292500000),#8);
#14=(CONVERSION_BASED_UNIT('DEGREE',#10)NAMED_UNIT(#9)PLANE_ANGLE_UNIT());
#18=(NAMED_UNIT(*)SI_UNIT($,.STERADIAN.)SOLID_ANGLE_UNIT());
#22=(LENGTH_UNIT()NAMED_UNIT(*)SI_UNIT(.MILLI.,.METRE.));
#23=UNCERTAINTY_MEASURE_WITH_UNIT(LENGTH_MEASURE(0.000001000000000),#22,'DISTANCE_ACCURACY_VALUE','');
#28=(GEOMETRIC_REPRESENTATION_CONTEXT(3)GLOBAL_UNCERTAINTY_ASSIGNED_CONTEXT((#23))GLOBAL_UNIT_ASSIGNED_CONTEXT((#14,#18,#22))REPRESENTATION_CONTEXT('None','None'));
#29=APPLICATION_CONTEXT('CONFIGURATION CONTROLLED 3D DESIGNS OF MECHANICAL PARTS AND ASSEMBLIES');
#30=APPLICATION_PROTOCOL_DEFINITION('INTERNATIONAL STANDARD','config_control_design',1995,#29);
#31=MECHANICAL_CONTEXT('3D Mechanical Parts',#29,'mechanical');
#32=PRODUCT('DF851','DF851',' ',(#31));
#33=PRODUCT_RELATED_PRODUCT_CATEGORY('detail',$,(#32,#130));
#34=PRODUCT_CATEGORY('part',$);
#35=PRODUCT_CATEGORY_RELATIONSHIP('None','None',#34,#33);
#36=PERSON('1','Design','Joe',$,$,$);
#37=ORGANIZATION($,'None','None');
#38=PERSON_AND_ORGANIZATION(#36,#37);
#39=PERSON_AND_ORGANIZATION_ROLE('design_owner');
#40=CC_DESIGN_PERSON_AND_ORGANIZATION_ASSIGNMENT(#38,#39,(#32,#130));
#41=PRODUCT_DEFINITION_FORMATION_WITH_SPECIFIED_SOURCE('None','None',#32,.NOT_KNOWN.);
#42=PERSON('2','Creator','Joe',$,$,$);
#43=ORGANIZATION($,'None','None');
#44=PERSON_AND_ORGANIZATION(#42,#43);
#45=PERSON_AND_ORGANIZATION_ROLE('creator');
#46=CC_DESIGN_PERSON_AND_ORGANIZATION_ASSIGNMENT(#44,#45,(#41,#131));
#47=PERSON('3','Supplier','Joe',$,$,$);
#48=ORGANIZATION($,'None','None');
#49=PERSON_AND_ORGANIZATION(#47,#48);
#50=PERSON_AND_ORGANIZATION_ROLE('design_supplier');
#51=CC_DESIGN_PERSON_AND_ORGANIZATION_ASSIGNMENT(#49,#50,(#41,#131));
#52=APPROVAL_STATUS('approved');
#53=APPROVAL(#52,'None');
#54=PERSON('4','Approver','Joe',$,$,$);
#55=ORGANIZATION($,'None','None');
#56=PERSON_AND_ORGANIZATION(#54,#55);
#57=APPROVAL_ROLE('approver');
#58=APPROVAL_PERSON_ORGANIZATION(#56,#53,#57);
#59=COORDINATED_UNIVERSAL_TIME_OFFSET(8,$,.BEHIND.);
#60=CALENDAR_DATE(1996,29,5);
#61=LOCAL_TIME(12,0,0.0,#59);
#62=DATE_AND_TIME(#60,#61);
#63=APPROVAL_DATE_TIME(#62,#53);
#64=CC_DESIGN_APPROVAL(#53,(#41,#131));
#65=SECURITY_CLASSIFICATION_LEVEL('unclassified');
#66=SECURITY_CLASSIFICATION('security','None',#65);
#67=CC_DESIGN_SECURITY_CLASSIFICATION(#66,(#41,#131,#309));
#68=APPROVAL_STATUS('approved');
#69=APPROVAL(#68,'None');
#70=PERSON('5','Approver','Joe',$,$,$);
#71=ORGANIZATION($,'None','None');
#72=PERSON_AND_ORGANIZATION(#70,#71);
#73=APPROVAL_ROLE('approver');
#74=APPROVAL_PERSON_ORGANIZATION(#72,#69,#73);
#75=COORDINATED_UNIVERSAL_TIME_OFFSET(8,$,.BEHIND.);
#76=CALENDAR_DATE(1996,29,5);
#77=LOCAL_TIME(12,0,0.0,#75);
#78=DATE_AND_TIME(#76,#77);
#79=APPROVAL_DATE_TIME(#78,#69);
#80=CC_DESIGN_APPROVAL(#69,(#66));
#81=PERSON('6','Classifier','Joe',$,$,$);
#82=ORGANIZATION($,'None','None');
#83=PERSON_AND_ORGANIZATION(#81,#82);
#84=PERSON_AND_ORGANIZATION_ROLE('classification_officer');
#85=CC_DESIGN_PERSON_AND_ORGANIZATION_ASSIGNMENT(#83,#84,(#66));
#86=COORDINATED_UNIVERSAL_TIME_OFFSET(8,$,.BEHIND.);
#87=CALENDAR_DATE(1996,29,5);
#88=LOCAL_TIME(12,0,0.0,#86);
#89=DATE_AND_TIME(#87,#88);
#90=DATE_TIME_ROLE('classification_date');
#91=CC_DESIGN_DATE_AND_TIME_ASSIGNMENT(#89,#90,(#66));
#92=DESIGN_CONTEXT('Design Context',#29,'design');
#93=PRODUCT_DEFINITION('None','None',#41,#92);
#94=PERSON('7','Creator','Joe',$,$,$);
#95=ORGANIZATION($,'None','None');
#96=PERSON_AND_ORGANIZATION(#94,#95);
#97=PERSON_AND_ORGANIZATION_ROLE('creator');
#98=CC_DESIGN_PERSON_AND_ORGANIZATION_ASSIGNMENT(#96,#97,(#93,#132));
#99=COORDINATED_UNIVERSAL_TIME_OFFSET(8,$,.BEHIND.);
#100=CALENDAR_DATE(1996,29,5);
#101=LOCAL_TIME(12,0,0.0,#99);
#102=DATE_AND_TIME(#100,#101);
#103=DATE_TIME_ROLE('creation_date');
#104=CC_DESIGN_DATE_AND_TIME_ASSIGNMENT(#102,#103,(#93,#132));
#105=APPROVAL_STATUS('approved');
#106=APPROVAL(#105,'None');
#107=PERSON('8','Approver','Joe',$,$,$);
#108=ORGANIZATION($,'None','None');
#109=PERSON_AND_ORGANIZATION(#107,#108);
#110=APPROVAL_ROLE('approver');
#111=APPROVAL_PERSON_ORGANIZATION(#109,#106,#110);
#112=COORDINATED_UNIVERSAL_TIME_OFFSET(8,$,.BEHIND.);
#113=CALENDAR_DATE(1996,29,5);
#114=LOCAL_TIME(12,0,0.0,#112);
#115=DATE_AND_TIME(#113,#114);
#116=APPROVAL_DATE_TIME(#115,#106);
#117=CC_DESIGN_APPROVAL(#106,(#93,#132));
#118=CARTESIAN_POINT('NONE',(0.0,0.0,0.0));
#119=DIRECTION('NONE',(0.0,0.0,1.0));
#120=DIRECTION('NONE',(1.0,0.0,0.0));
#121=AXIS2_PLACEMENT_3D('NONE',#118,#119,#120);
#122=SHAPE_REPRESENTATION('SR1',(#121,#303),#28);
#123=PRODUCT_DEFINITION_SHAPE('PDS1','Test Part',#93);
#124=SHAPE_DEFINITION_REPRESENTATION(#123,#122);
#129=(GEOMETRIC_REPRESENTATION_CONTEXT(3)GLOBAL_UNCERTAINTY_ASSIGNED_CONTEXT((#23))GLOBAL_UNIT_ASSIGNED_CONTEXT((#14,#18,#22))REPRESENTATION_CONTEXT('Component','Component'));
#130=PRODUCT('PART1','PART1',' ',(#31));
#131=PRODUCT_DEFINITION_FORMATION_WITH_SPECIFIED_SOURCE('None','None',#130,.NOT_KNOWN.);
#132=PRODUCT_DEFINITION('None','None',#131,#92);
#133=SHAPE_REPRESENTATION('SR2',(#121),#129);
#134=PRODUCT_DEFINITION_SHAPE('PDS2','Test Part',#132);
#135=SHAPE_DEFINITION_REPRESENTATION(#134,#133);
#136=CARTESIAN_POINT('',(0.0,0.0,0.0));
#137=DIRECTION('',(-1.224606E-016,1.0,0.0));
#138=DIRECTION('',(0.0,0.0,1.0));
#139=AXIS2_PLACEMENT_3D('',#136,#137,#138);
#140=TOROIDAL_SURFACE('',#139,8.999999999999986,1.0);
#141=CARTESIAN_POINT('',(1.224606E-015,1.224606E-016,-9.999999999999986));
#142=VERTEX_POINT('',#141);
#143=CARTESIAN_POINT('',(-1.224606E-015,1.224606E-016,9.999999999999986));
#144=VERTEX_POINT('',#143);
#145=CARTESIAN_POINT('',(-1.499661E-032,1.224606E-016,0.0));
#146=DIRECTION('',(0.0,1.0,0.0));
#147=DIRECTION('',(0.0,0.0,1.0));
#148=AXIS2_PLACEMENT_3D('',#145,#146,#147);
#149=CIRCLE('',#148,9.999999999999986);
#150=EDGE_CURVE('',#142,#144,#149,.T.);
#151=ORIENTED_EDGE('',*,*,#150,.F.);
#152=CARTESIAN_POINT('',(1.057322E-015,-0.500000000000000,-8.133974596215552));
#153=VERTEX_POINT('',#152);
#154=CARTESIAN_POINT('',(1.102146E-015,1.349695E-031,-8.999999999999986));
#155=DIRECTION('',(-1.0,0.0,0.0));
#156=DIRECTION('',(0.0,0.0,-1.0));
#157=AXIS2_PLACEMENT_3D('',#154,#155,#156);
#158=CIRCLE('',#157,1.0);
#159=EDGE_CURVE('',#142,#153,#158,.T.);
#160=ORIENTED_EDGE('',*,*,#159,.T.);
#161=CARTESIAN_POINT('',(-8.133974596215552,-0.500000000000000,0.0));
#162=VERTEX_POINT('',#161);
#163=CARTESIAN_POINT('',(0.0,-0.500000000000000,0.0));
#164=DIRECTION('',(0.0,1.0,0.0));
#165=DIRECTION('',(-1.0,0.0,0.0));
#166=AXIS2_PLACEMENT_3D('',#163,#164,#165);
#167=CIRCLE('',#166,8.133974596215552);
#168=EDGE_CURVE('',#153,#162,#167,.T.);
#169=ORIENTED_EDGE('',*,*,#168,.T.);
#170=CARTESIAN_POINT('',(-9.348614E-016,-0.500000000000000,8.133974596215552));
#171=VERTEX_POINT('',#170);
#172=CARTESIAN_POINT('',(0.0,-0.500000000000000,0.0));
#173=DIRECTION('',(0.0,1.0,0.0));
#174=DIRECTION('',(-1.0,0.0,0.0));
#175=AXIS2_PLACEMENT_3D('',#172,#173,#174);
#176=CIRCLE('',#175,8.133974596215552);
#177=EDGE_CURVE('',#162,#171,#176,.T.);
#178=ORIENTED_EDGE('',*,*,#177,.T.);
#179=CARTESIAN_POINT('',(-1.102146E-015,-1.349695E-031,8.999999999999986));
#180=DIRECTION('',(-1.0,0.0,0.0));
#181=DIRECTION('',(0.0,0.0,-1.0));
#182=AXIS2_PLACEMENT_3D('',#179,#180,#181);
#183=CIRCLE('',#182,1.0);
#184=EDGE_CURVE('',#171,#144,#183,.T.);
#185=ORIENTED_EDGE('',*,*,#184,.T.);
#186=EDGE_LOOP('',(#151,#160,#169,#178,#185));
#187=FACE_OUTER_BOUND('',#186,.T.);
#188=ADVANCED_FACE('',(#187),#140,.T.);
#189=CARTESIAN_POINT('',(0.0,0.0,0.0));
#190=DIRECTION('',(-1.224606E-016,1.0,0.0));
#191=DIRECTION('',(0.0,0.0,1.0));
#192=AXIS2_PLACEMENT_3D('',#189,#190,#191);
#193=TOROIDAL_SURFACE('',#192,8.999999999999986,1.0);
#194=CARTESIAN_POINT('',(-1.499661E-032,1.224606E-016,0.0));
#195=DIRECTION('',(0.0,1.0,0.0));
#196=DIRECTION('',(0.0,0.0,1.0));
#197=AXIS2_PLACEMENT_3D('',#194,#195,#196);
#198=CIRCLE('',#197,9.999999999999986);
#199=EDGE_CURVE('',#144,#142,#198,.T.);
#200=ORIENTED_EDGE('',*,*,#199,.F.);
#201=ORIENTED_EDGE('',*,*,#184,.F.);
#202=CARTESIAN_POINT('',(0.0,-0.500000000000000,0.0));
#203=DIRECTION('',(0.0,1.0,0.0));
#204=DIRECTION('',(-1.0,0.0,0.0));
#205=AXIS2_PLACEMENT_3D('',#202,#203,#204);
#206=CIRCLE('',#205,8.133974596215552);
#207=EDGE_CURVE('',#171,#153,#206,.T.);
#208=ORIENTED_EDGE('',*,*,#207,.T.);
#209=ORIENTED_EDGE('',*,*,#159,.F.);
#210=EDGE_LOOP('',(#200,#201,#208,#209));
#211=FACE_OUTER_BOUND('',#210,.T.);
#212=ADVANCED_FACE('',(#211),#193,.T.);
#213=CARTESIAN_POINT('',(0.0,0.0,0.0));
#214=DIRECTION('',(-1.224606E-016,1.0,0.0));
#215=DIRECTION('',(0.0,0.0,1.0));
#216=AXIS2_PLACEMENT_3D('',#213,#214,#215);
#217=TOROIDAL_SURFACE('',#216,8.999999999999986,1.0);
#218=ORIENTED_EDGE('',*,*,#199,.T.);
#219=CARTESIAN_POINT('',(9.348614E-016,0.500000000000000,-8.133974596215552));
#220=VERTEX_POINT('',#219);
#221=CARTESIAN_POINT('',(1.102146E-015,1.349695E-031,-8.999999999999986));
#222=DIRECTION('',(-1.0,0.0,0.0));
#223=DIRECTION('',(0.0,0.0,-1.0));
#224=AXIS2_PLACEMENT_3D('',#221,#222,#223);
#225=CIRCLE('',#224,1.0);
#226=EDGE_CURVE('',#220,#142,#225,.T.);
#227=ORIENTED_EDGE('',*,*,#226,.F.);
#228=CARTESIAN_POINT('',(-1.057322E-015,0.500000000000000,8.133974596215552));
#229=VERTEX_POINT('',#228);
#230=CARTESIAN_POINT('',(0.0,0.500000000000000,0.0));
#231=DIRECTION('',(0.0,1.0,0.0));
#232=DIRECTION('',(-1.0,0.0,0.0));
#233=AXIS2_PLACEMENT_3D('',#230,#231,#232);
#234=CIRCLE('',#233,8.133974596215552);
#235=EDGE_CURVE('',#229,#220,#234,.T.);
#236=ORIENTED_EDGE('',*,*,#235,.F.);
#237=CARTESIAN_POINT('',(-1.102146E-015,-1.349695E-031,8.999999999999986));
#238=DIRECTION('',(-1.0,0.0,0.0));
#239=DIRECTION('',(0.0,0.0,-1.0));
#240=AXIS2_PLACEMENT_3D('',#237,#238,#239);
#241=CIRCLE('',#240,1.0);
#242=EDGE_CURVE('',#144,#229,#241,.T.);
#243=ORIENTED_EDGE('',*,*,#242,.F.);
#244=EDGE_LOOP('',(#218,#227,#236,#243));
#245=FACE_OUTER_BOUND('',#244,.T.);
#246=ADVANCED_FACE('',(#245),#217,.T.);
#247=CARTESIAN_POINT('',(-4.066987298107776,-0.500000000000000,0.0));
#248=DIRECTION('',(0.0,-1.0,0.0));
#249=DIRECTION('',(0.0,0.0,-1.0));
#250=AXIS2_PLACEMENT_3D('',#247,#248,#249);
#251=PLANE('',#250);
#252=ORIENTED_EDGE('',*,*,#177,.F.);
#253=ORIENTED_EDGE('',*,*,#168,.F.);
#254=ORIENTED_EDGE('',*,*,#207,.F.);
#255=EDGE_LOOP('',(#252,#253,#254));
#256=FACE_OUTER_BOUND('',#255,.T.);
#257=ADVANCED_FACE('',(#256),#251,.T.);
#258=CARTESIAN_POINT('',(0.0,0.0,0.0));
#259=DIRECTION('',(-1.224606E-016,1.0,0.0));
#260=DIRECTION('',(0.0,0.0,1.0));
#261=AXIS2_PLACEMENT_3D('',#258,#259,#260);
#262=TOROIDAL_SURFACE('',#261,8.999999999999986,1.0);
#263=ORIENTED_EDGE('',*,*,#150,.T.);
#264=ORIENTED_EDGE('',*,*,#242,.T.);
#265=CARTESIAN_POINT('',(-8.133974596215552,0.500000000000000,0.0));
#266=VERTEX_POINT('',#265);
#267=CARTESIAN_POINT('',(0.0,0.500000000000000,0.0));
#268=DIRECTION('',(0.0,1.0,0.0));
#269=DIRECTION('',(-1.0,0.0,0.0));
#270=AXIS2_PLACEMENT_3D('',#267,#268,#269);
#271=CIRCLE('',#270,8.133974596215552);
#272=EDGE_CURVE('',#266,#229,#271,.T.);
#273=ORIENTED_EDGE('',*,*,#272,.F.);
#274=CARTESIAN_POINT('',(0.0,0.500000000000000,0.0));
#275=DIRECTION('',(0.0,1.0,0.0));
#276=DIRECTION('',(-1.0,0.0,0.0));
#277=AXIS2_PLACEMENT_3D('',#274,#275,#276);
#278=CIRCLE('',#277,8.133974596215552);
#279=EDGE_CURVE('',#220,#266,#278,.T.);
#280=ORIENTED_EDGE('',*,*,#279,.F.);
#281=ORIENTED_EDGE('',*,*,#226,.T.);
#282=EDGE_LOOP('',(#263,#264,#273,#280,#281));
#283=FACE_OUTER_BOUND('',#282,.T.);
#284=ADVANCED_FACE('',(#283),#262,.T.);
#285=CARTESIAN_POINT('',(-4.066987298107776,0.500000000000000,0.0));
#286=DIRECTION('',(0.0,1.0,0.0));
#287=DIRECTION('',(0.0,0.0,1.0));
#288=AXIS2_PLACEMENT_3D('',#285,#286,#287);
#289=PLANE('',#288);
#290=ORIENTED_EDGE('',*,*,#272,.T.);
#291=ORIENTED_EDGE('',*,*,#235,.T.);
#292=ORIENTED_EDGE('',*,*,#279,.T.);
#293=EDGE_LOOP('',(#290,#291,#292));
#294=FACE_OUTER_BOUND('',#293,.T.);
#295=ADVANCED_FACE('',(#294),#289,.T.);
#296=CLOSED_SHELL('',(#188,#212,#246,#257,#284,#295));
#297=SHELL_BASED_SURFACE_MODEL('',(#296));
#298=MANIFOLD_SURFACE_SHAPE_REPRESENTATION('',(#297),#129);
#299=SHAPE_REPRESENTATION_RELATIONSHIP('SRRPL1',' ',#298,#133);
#300=CARTESIAN_POINT('NONE',(104.315180960069450,200.644091825694060,0.0));
#301=DIRECTION('NONE',(0.0,0.0,1.0));
#302=DIRECTION('NONE',(1.0,0.0,0.0));
#303=AXIS2_PLACEMENT_3D('NONE',#300,#301,#302);
#304=ITEM_DEFINED_TRANSFORMATION('IDT1',' ',#121,#303);
#308=(REPRESENTATION_RELATIONSHIP(' ',' ',#133,#122)REPRESENTATION_RELATIONSHIP_WITH_TRANSFORMATION(#304)SHAPE_REPRESENTATION_RELATIONSHIP());
#309=NEXT_ASSEMBLY_USAGE_OCCURRENCE('NAUO1','PART1_1','PART1_1',#93,#132,$);
#310=PRODUCT_DEFINITION_SHAPE('PDS_NAUO1',' ',#309);
#311=CONTEXT_DEPENDENT_SHAPE_REPRESENTATION(#308,#310);
ENDSEC;
END-ISO-10303-21;
