ISO-10303-21;
HEADER;
/****************************************************************
 * Generated by software with PDE/Lib inside                    *
 * PDE/Lib Version 3.2.2, created Thu Mar 23, 2000 at 18:38:49  *
 * International Technegroup Inc. (www.iti-oh.com)              *
 ****************************************************************/
FILE_DESCRIPTION((''),'2;1');
FILE_NAME('DF1.stp','2003-01-03T03:28:29',('Branislav Petkovic'),('AZ Pneumatica'),'AutoCAD STEP 2000i','AutoCAD 2000i','Via J. F. Kennedy, 26, 20020 Misinto (MI), ITALY');
FILE_SCHEMA(('CONFIG_CONTROL_DESIGN'));
ENDSEC;
DATA;
#8=(NAMED_UNIT(*)PLANE_ANGLE_UNIT()SI_UNIT($,.RADIAN.));
#9=DIMENSIONAL_EXPONENTS(0.0,0.0,0.0,0.0,0.0,0.0,0.0);
#10=PLANE_ANGLE_MEASURE_WITH_UNIT(PLANE_ANGLE_MEASURE(0.017453292500000),#8);
#14=(CONVERSION_BASED_UNIT('DEGREE',#10)NAMED_UNIT(#9)PLANE_ANGLE_UNIT());
#18=(NAMED_UNIT(*)SI_UNIT($,.STERADIAN.)SOLID_ANGLE_UNIT());
#22=(LENGTH_UNIT()NAMED_UNIT(*)SI_UNIT(.MILLI.,.METRE.));
#23=UNCERTAINTY_MEASURE_WITH_UNIT(LENGTH_MEASURE(0.000001000000000),#22,'DISTANCE_ACCURACY_VALUE','');
#28=(GEOMETRIC_REPRESENTATION_CONTEXT(3)GLOBAL_UNCERTAINTY_ASSIGNED_CONTEXT((#23))GLOBAL_UNIT_ASSIGNED_CONTEXT((#14,#18,#22))REPRESENTATION_CONTEXT('None','None'));
#29=APPLICATION_CONTEXT('CONFIGURATION CONTROLLED 3D DESIGNS OF MECHANICAL PARTS AND ASSEMBLIES');
#30=APPLICATION_PROTOCOL_DEFINITION('INTERNATIONAL STANDARD','config_control_design',1995,#29);
#31=MECHANICAL_CONTEXT('3D Mechanical Parts',#29,'mechanical');
#32=PRODUCT('DF1','DF1',' ',(#31));
#33=PRODUCT_RELATED_PRODUCT_CATEGORY('detail',$,(#32,#130));
#34=PRODUCT_CATEGORY('part',$);
#35=PRODUCT_CATEGORY_RELATIONSHIP('None','None',#34,#33);
#36=PERSON('1','Design','Joe',$,$,$);
#37=ORGANIZATION($,'None','None');
#38=PERSON_AND_ORGANIZATION(#36,#37);
#39=PERSON_AND_ORGANIZATION_ROLE('design_owner');
#40=CC_DESIGN_PERSON_AND_ORGANIZATION_ASSIGNMENT(#38,#39,(#32,#130));
#41=PRODUCT_DEFINITION_FORMATION_WITH_SPECIFIED_SOURCE('None','None',#32,.NOT_KNOWN.);
#42=PERSON('2','Creator','Joe',$,$,$);
#43=ORGANIZATION($,'None','None');
#44=PERSON_AND_ORGANIZATION(#42,#43);
#45=PERSON_AND_ORGANIZATION_ROLE('creator');
#46=CC_DESIGN_PERSON_AND_ORGANIZATION_ASSIGNMENT(#44,#45,(#41,#131));
#47=PERSON('3','Supplier','Joe',$,$,$);
#48=ORGANIZATION($,'None','None');
#49=PERSON_AND_ORGANIZATION(#47,#48);
#50=PERSON_AND_ORGANIZATION_ROLE('design_supplier');
#51=CC_DESIGN_PERSON_AND_ORGANIZATION_ASSIGNMENT(#49,#50,(#41,#131));
#52=APPROVAL_STATUS('approved');
#53=APPROVAL(#52,'None');
#54=PERSON('4','Approver','Joe',$,$,$);
#55=ORGANIZATION($,'None','None');
#56=PERSON_AND_ORGANIZATION(#54,#55);
#57=APPROVAL_ROLE('approver');
#58=APPROVAL_PERSON_ORGANIZATION(#56,#53,#57);
#59=COORDINATED_UNIVERSAL_TIME_OFFSET(8,$,.BEHIND.);
#60=CALENDAR_DATE(1996,29,5);
#61=LOCAL_TIME(12,0,0.0,#59);
#62=DATE_AND_TIME(#60,#61);
#63=APPROVAL_DATE_TIME(#62,#53);
#64=CC_DESIGN_APPROVAL(#53,(#41,#131));
#65=SECURITY_CLASSIFICATION_LEVEL('unclassified');
#66=SECURITY_CLASSIFICATION('security','None',#65);
#67=CC_DESIGN_SECURITY_CLASSIFICATION(#66,(#41,#131,#447));
#68=APPROVAL_STATUS('approved');
#69=APPROVAL(#68,'None');
#70=PERSON('5','Approver','Joe',$,$,$);
#71=ORGANIZATION($,'None','None');
#72=PERSON_AND_ORGANIZATION(#70,#71);
#73=APPROVAL_ROLE('approver');
#74=APPROVAL_PERSON_ORGANIZATION(#72,#69,#73);
#75=COORDINATED_UNIVERSAL_TIME_OFFSET(8,$,.BEHIND.);
#76=CALENDAR_DATE(1996,29,5);
#77=LOCAL_TIME(12,0,0.0,#75);
#78=DATE_AND_TIME(#76,#77);
#79=APPROVAL_DATE_TIME(#78,#69);
#80=CC_DESIGN_APPROVAL(#69,(#66));
#81=PERSON('6','Classifier','Joe',$,$,$);
#82=ORGANIZATION($,'None','None');
#83=PERSON_AND_ORGANIZATION(#81,#82);
#84=PERSON_AND_ORGANIZATION_ROLE('classification_officer');
#85=CC_DESIGN_PERSON_AND_ORGANIZATION_ASSIGNMENT(#83,#84,(#66));
#86=COORDINATED_UNIVERSAL_TIME_OFFSET(8,$,.BEHIND.);
#87=CALENDAR_DATE(1996,29,5);
#88=LOCAL_TIME(12,0,0.0,#86);
#89=DATE_AND_TIME(#87,#88);
#90=DATE_TIME_ROLE('classification_date');
#91=CC_DESIGN_DATE_AND_TIME_ASSIGNMENT(#89,#90,(#66));
#92=DESIGN_CONTEXT('Design Context',#29,'design');
#93=PRODUCT_DEFINITION('None','None',#41,#92);
#94=PERSON('7','Creator','Joe',$,$,$);
#95=ORGANIZATION($,'None','None');
#96=PERSON_AND_ORGANIZATION(#94,#95);
#97=PERSON_AND_ORGANIZATION_ROLE('creator');
#98=CC_DESIGN_PERSON_AND_ORGANIZATION_ASSIGNMENT(#96,#97,(#93,#132));
#99=COORDINATED_UNIVERSAL_TIME_OFFSET(8,$,.BEHIND.);
#100=CALENDAR_DATE(1996,29,5);
#101=LOCAL_TIME(12,0,0.0,#99);
#102=DATE_AND_TIME(#100,#101);
#103=DATE_TIME_ROLE('creation_date');
#104=CC_DESIGN_DATE_AND_TIME_ASSIGNMENT(#102,#103,(#93,#132));
#105=APPROVAL_STATUS('approved');
#106=APPROVAL(#105,'None');
#107=PERSON('8','Approver','Joe',$,$,$);
#108=ORGANIZATION($,'None','None');
#109=PERSON_AND_ORGANIZATION(#107,#108);
#110=APPROVAL_ROLE('approver');
#111=APPROVAL_PERSON_ORGANIZATION(#109,#106,#110);
#112=COORDINATED_UNIVERSAL_TIME_OFFSET(8,$,.BEHIND.);
#113=CALENDAR_DATE(1996,29,5);
#114=LOCAL_TIME(12,0,0.0,#112);
#115=DATE_AND_TIME(#113,#114);
#116=APPROVAL_DATE_TIME(#115,#106);
#117=CC_DESIGN_APPROVAL(#106,(#93,#132));
#118=CARTESIAN_POINT('NONE',(0.0,0.0,0.0));
#119=DIRECTION('NONE',(0.0,0.0,1.0));
#120=DIRECTION('NONE',(1.0,0.0,0.0));
#121=AXIS2_PLACEMENT_3D('NONE',#118,#119,#120);
#122=SHAPE_REPRESENTATION('SR1',(#121,#441),#28);
#123=PRODUCT_DEFINITION_SHAPE('PDS1','Test Part',#93);
#124=SHAPE_DEFINITION_REPRESENTATION(#123,#122);
#129=(GEOMETRIC_REPRESENTATION_CONTEXT(3)GLOBAL_UNCERTAINTY_ASSIGNED_CONTEXT((#23))GLOBAL_UNIT_ASSIGNED_CONTEXT((#14,#18,#22))REPRESENTATION_CONTEXT('Component','Component'));
#130=PRODUCT('PART1','PART1',' ',(#31));
#131=PRODUCT_DEFINITION_FORMATION_WITH_SPECIFIED_SOURCE('None','None',#130,.NOT_KNOWN.);
#132=PRODUCT_DEFINITION('None','None',#131,#92);
#133=SHAPE_REPRESENTATION('SR2',(#121),#129);
#134=PRODUCT_DEFINITION_SHAPE('PDS2','Test Part',#132);
#135=SHAPE_DEFINITION_REPRESENTATION(#134,#133);
#136=CARTESIAN_POINT('',(0.0,1.110223E-015,0.0));
#137=DIRECTION('',(-1.224606E-016,1.0,0.0));
#138=DIRECTION('',(0.0,0.0,1.0));
#139=AXIS2_PLACEMENT_3D('',#136,#137,#138);
#140=TOROIDAL_SURFACE('',#139,9.0,1.0);
#141=CARTESIAN_POINT('',(-9.987494569854302,-5.892554E-017,0.499952214847419));
#142=VERTEX_POINT('',#141);
#143=CARTESIAN_POINT('',(-1.224606E-015,1.232684E-015,10.0));
#144=VERTEX_POINT('',#143);
#145=CARTESIAN_POINT('',(-1.499661E-032,1.232684E-015,0.0));
#146=DIRECTION('',(0.0,1.0,0.0));
#147=DIRECTION('',(0.0,0.0,1.0));
#148=AXIS2_PLACEMENT_3D('',#145,#146,#147);
#149=CIRCLE('',#148,10.0);
#150=EDGE_CURVE('',#142,#144,#149,.T.);
#151=ORIENTED_EDGE('',*,*,#150,.F.);
#152=CARTESIAN_POINT('',(-9.861997506800618,-0.506912515400359,6.038532E-016));
#153=VERTEX_POINT('',#152);
#154=CARTESIAN_POINT('',(-9.987494569854302,-5.892554E-017,0.499952214847419));
#155=CARTESIAN_POINT('',(-9.987485998541180,-0.012384195667619,0.500123443098302));
#156=CARTESIAN_POINT('',(-9.987269930061588,-0.024799237383425,0.499834952943095));
#157=CARTESIAN_POINT('',(-9.984707810316252,-0.099583589743688,0.495293125088202));
#158=CARTESIAN_POINT('',(-9.977264607774306,-0.160026446215160,0.479934781007889));
#159=CARTESIAN_POINT('',(-9.953706912498204,-0.277600488012965,0.425842989742830));
#160=CARTESIAN_POINT('',(-9.937039880560244,-0.332386965667151,0.385412280981734));
#161=CARTESIAN_POINT('',(-9.904195996765521,-0.421072839215752,0.287598533823125));
#162=CARTESIAN_POINT('',(-9.888182318766981,-0.455335927029000,0.230864126177872));
#163=CARTESIAN_POINT('',(-9.867565626296756,-0.496893569073057,0.114794619588499));
#164=CARTESIAN_POINT('',(-9.861997506800618,-0.506912515400359,0.057960565637401));
#165=CARTESIAN_POINT('',(-9.861997506800618,-0.506912515400359,6.038532E-016));
#166=B_SPLINE_CURVE_WITH_KNOTS('',3,(#154,#155,#156,#157,#158,#159,#160,#161,#162,#163,#164,#165),.UNSPECIFIED.,.F.,.U.,(4,2,2,2,2,4),(-0.807452792919473,-0.770100722866911,-0.582610440587245,-0.375496387503392,-0.173881696912201,0.0),.UNSPECIFIED.);
#167=EDGE_CURVE('',#142,#153,#166,.T.);
#168=ORIENTED_EDGE('',*,*,#167,.T.);
#169=CARTESIAN_POINT('',(-9.987494569854301,-1.045164E-016,-0.499952214847419));
#170=VERTEX_POINT('',#169);
#171=CARTESIAN_POINT('',(-9.861997506800618,-0.506912515400359,6.038532E-016));
#172=CARTESIAN_POINT('',(-9.861997506800618,-0.506912515400359,-0.053805079836067));
#173=CARTESIAN_POINT('',(-9.866779584843174,-0.498274323672807,-0.106689153068065));
#174=CARTESIAN_POINT('',(-9.884892023451682,-0.462159004180297,-0.215815811855274));
#175=CARTESIAN_POINT('',(-9.899186694483007,-0.432189716473808,-0.269875025871052));
#176=CARTESIAN_POINT('',(-9.929987774291549,-0.353103881606006,-0.366400674692272));
#177=CARTESIAN_POINT('',(-9.946426029210111,-0.303156284183484,-0.407956216968972));
#178=CARTESIAN_POINT('',(-9.971511034771574,-0.194270246246194,-0.467348783134254));
#179=CARTESIAN_POINT('',(-9.980511554998724,-0.137188333109598,-0.486491475320610));
#180=CARTESIAN_POINT('',(-9.986554440414006,-0.051690981068756,-0.498668080684965));
#181=CARTESIAN_POINT('',(-9.987476700536769,-0.025818345634880,-0.500309188387115));
#182=CARTESIAN_POINT('',(-9.987494569854301,-1.045164E-016,-0.499952214847419));
#183=B_SPLINE_CURVE_WITH_KNOTS('',3,(#171,#172,#173,#174,#175,#176,#177,#178,#179,#180,#181,#182),.UNSPECIFIED.,.F.,.U.,(4,2,2,2,2,4),(-3.199368000844980,-3.037952761336778,-2.849908671978805,-2.651829771751115,-2.470304432577690,-2.392198323508652),.UNSPECIFIED.);
#184=EDGE_CURVE('',#153,#170,#183,.T.);
#185=ORIENTED_EDGE('',*,*,#184,.T.);
#186=CARTESIAN_POINT('',(1.224606E-015,1.232684E-015,-10.0));
#187=VERTEX_POINT('',#186);
#188=CARTESIAN_POINT('',(-1.499661E-032,1.232684E-015,0.0));
#189=DIRECTION('',(0.0,1.0,0.0));
#190=DIRECTION('',(0.0,0.0,1.0));
#191=AXIS2_PLACEMENT_3D('',#188,#189,#190);
#192=CIRCLE('',#191,10.0);
#193=EDGE_CURVE('',#187,#170,#192,.T.);
#194=ORIENTED_EDGE('',*,*,#193,.F.);
#195=CARTESIAN_POINT('',(1.057322E-015,-0.500000000000028,-8.133974596215580));
#196=VERTEX_POINT('',#195);
#197=CARTESIAN_POINT('',(1.102146E-015,1.110223E-015,-9.0));
#198=DIRECTION('',(-1.0,0.0,0.0));
#199=DIRECTION('',(0.0,0.0,-1.0));
#200=AXIS2_PLACEMENT_3D('',#197,#198,#199);
#201=CIRCLE('',#200,1.0);
#202=EDGE_CURVE('',#187,#196,#201,.T.);
#203=ORIENTED_EDGE('',*,*,#202,.T.);
#204=CARTESIAN_POINT('',(-8.133974596215580,-0.500000000000028,0.0));
#205=VERTEX_POINT('',#204);
#206=CARTESIAN_POINT('',(-6.107476E-017,-0.500000000000028,0.0));
#207=DIRECTION('',(0.0,1.0,0.0));
#208=DIRECTION('',(-1.0,0.0,0.0));
#209=AXIS2_PLACEMENT_3D('',#206,#207,#208);
#210=CIRCLE('',#209,8.133974596215580);
#211=EDGE_CURVE('',#196,#205,#210,.T.);
#212=ORIENTED_EDGE('',*,*,#211,.T.);
#213=CARTESIAN_POINT('',(-9.348614E-016,-0.500000000000028,8.133974596215580));
#214=VERTEX_POINT('',#213);
#215=CARTESIAN_POINT('',(-6.107476E-017,-0.500000000000028,0.0));
#216=DIRECTION('',(0.0,1.0,0.0));
#217=DIRECTION('',(-1.0,0.0,0.0));
#218=AXIS2_PLACEMENT_3D('',#215,#216,#217);
#219=CIRCLE('',#218,8.133974596215580);
#220=EDGE_CURVE('',#205,#214,#219,.T.);
#221=ORIENTED_EDGE('',*,*,#220,.T.);
#222=CARTESIAN_POINT('',(-1.102146E-015,1.110223E-015,9.0));
#223=DIRECTION('',(-1.0,0.0,0.0));
#224=DIRECTION('',(0.0,0.0,-1.0));
#225=AXIS2_PLACEMENT_3D('',#222,#223,#224);
#226=CIRCLE('',#225,1.0);
#227=EDGE_CURVE('',#214,#144,#226,.T.);
#228=ORIENTED_EDGE('',*,*,#227,.T.);
#229=EDGE_LOOP('',(#151,#168,#185,#194,#203,#212,#221,#228));
#230=FACE_OUTER_BOUND('',#229,.T.);
#231=ADVANCED_FACE('',(#230),#140,.T.);
#232=CARTESIAN_POINT('',(0.0,1.110223E-015,0.0));
#233=DIRECTION('',(-1.224606E-016,1.0,0.0));
#234=DIRECTION('',(0.0,0.0,1.0));
#235=AXIS2_PLACEMENT_3D('',#232,#233,#234);
#236=TOROIDAL_SURFACE('',#235,9.0,1.0);
#237=CARTESIAN_POINT('',(-1.499661E-032,1.232684E-015,0.0));
#238=DIRECTION('',(0.0,1.0,0.0));
#239=DIRECTION('',(0.0,0.0,1.0));
#240=AXIS2_PLACEMENT_3D('',#237,#238,#239);
#241=CIRCLE('',#240,10.0);
#242=EDGE_CURVE('',#144,#187,#241,.T.);
#243=ORIENTED_EDGE('',*,*,#242,.F.);
#244=ORIENTED_EDGE('',*,*,#227,.F.);
#245=CARTESIAN_POINT('',(-6.107476E-017,-0.500000000000028,0.0));
#246=DIRECTION('',(0.0,1.0,0.0));
#247=DIRECTION('',(-1.0,0.0,0.0));
#248=AXIS2_PLACEMENT_3D('',#245,#246,#247);
#249=CIRCLE('',#248,8.133974596215580);
#250=EDGE_CURVE('',#214,#196,#249,.T.);
#251=ORIENTED_EDGE('',*,*,#250,.T.);
#252=ORIENTED_EDGE('',*,*,#202,.F.);
#253=EDGE_LOOP('',(#243,#244,#251,#252));
#254=FACE_OUTER_BOUND('',#253,.T.);
#255=ADVANCED_FACE('',(#254),#236,.T.);
#256=CARTESIAN_POINT('',(0.0,1.110223E-015,0.0));
#257=DIRECTION('',(-1.224606E-016,1.0,0.0));
#258=DIRECTION('',(0.0,0.0,1.0));
#259=AXIS2_PLACEMENT_3D('',#256,#257,#258);
#260=TOROIDAL_SURFACE('',#259,9.0,1.0);
#261=ORIENTED_EDGE('',*,*,#242,.T.);
#262=CARTESIAN_POINT('',(9.348614E-016,0.500000000000001,-8.133974596215566));
#263=VERTEX_POINT('',#262);
#264=CARTESIAN_POINT('',(1.102146E-015,1.110223E-015,-9.0));
#265=DIRECTION('',(-1.0,0.0,0.0));
#266=DIRECTION('',(0.0,0.0,-1.0));
#267=AXIS2_PLACEMENT_3D('',#264,#265,#266);
#268=CIRCLE('',#267,1.0);
#269=EDGE_CURVE('',#263,#187,#268,.T.);
#270=ORIENTED_EDGE('',*,*,#269,.F.);
#271=CARTESIAN_POINT('',(-1.057322E-015,0.500000000000001,8.133974596215566));
#272=VERTEX_POINT('',#271);
#273=CARTESIAN_POINT('',(-1.835354E-016,0.500000000000001,0.0));
#274=DIRECTION('',(0.0,1.0,0.0));
#275=DIRECTION('',(-1.0,0.0,0.0));
#276=AXIS2_PLACEMENT_3D('',#273,#274,#275);
#277=CIRCLE('',#276,8.133974596215566);
#278=EDGE_CURVE('',#272,#263,#277,.T.);
#279=ORIENTED_EDGE('',*,*,#278,.F.);
#280=CARTESIAN_POINT('',(-1.102146E-015,1.110223E-015,9.0));
#281=DIRECTION('',(-1.0,0.0,0.0));
#282=DIRECTION('',(0.0,0.0,-1.0));
#283=AXIS2_PLACEMENT_3D('',#280,#281,#282);
#284=CIRCLE('',#283,1.0);
#285=EDGE_CURVE('',#144,#272,#284,.T.);
#286=ORIENTED_EDGE('',*,*,#285,.F.);
#287=EDGE_LOOP('',(#261,#270,#279,#286));
#288=FACE_OUTER_BOUND('',#287,.T.);
#289=ADVANCED_FACE('',(#288),#260,.T.);
#290=CARTESIAN_POINT('',(-11.612417780852226,-0.006912515400359,0.0));
#291=DIRECTION('',(1.0,0.0,0.0));
#292=DIRECTION('',(0.0,1.0,0.0));
#293=AXIS2_PLACEMENT_3D('',#290,#291,#292);
#294=CYLINDRICAL_SURFACE('',#293,0.500000000000000);
#295=CARTESIAN_POINT('',(-14.112417780852226,0.493087484599641,0.0));
#296=VERTEX_POINT('',#295);
#297=CARTESIAN_POINT('',(-9.869979731103662,0.493087484599641,-8.520404E-017));
#298=VERTEX_POINT('',#297);
#299=CARTESIAN_POINT('',(-14.112417780852226,0.493087484599641,0.0));
#300=DIRECTION('',(1.0,0.0,0.0));
#301=VECTOR('',#300,4.242438049748564);
#302=LINE('',#299,#301);
#303=EDGE_CURVE('',#296,#298,#302,.T.);
#304=ORIENTED_EDGE('',*,*,#303,.F.);
#305=CARTESIAN_POINT('',(-14.112417780852226,-0.506912515400359,6.123032E-017));
#306=VERTEX_POINT('',#305);
#307=CARTESIAN_POINT('',(-14.112417780852226,-0.006912515400359,0.0));
#308=DIRECTION('',(1.0,0.0,0.0));
#309=DIRECTION('',(0.0,1.0,0.0));
#310=AXIS2_PLACEMENT_3D('',#307,#308,#309);
#311=CIRCLE('',#310,0.500000000000000);
#312=EDGE_CURVE('',#296,#306,#311,.T.);
#313=ORIENTED_EDGE('',*,*,#312,.T.);
#314=CARTESIAN_POINT('',(-9.861997506800618,-0.506912515400359,6.038532E-016));
#315=DIRECTION('',(-1.0,0.0,0.0));
#316=VECTOR('',#315,4.250420274051608);
#317=LINE('',#314,#316);
#318=EDGE_CURVE('',#153,#306,#317,.T.);
#319=ORIENTED_EDGE('',*,*,#318,.F.);
#320=ORIENTED_EDGE('',*,*,#167,.F.);
#321=CARTESIAN_POINT('',(-9.869979731103662,0.493087484599641,-8.520404E-017));
#322=CARTESIAN_POINT('',(-9.869979731103662,0.493087484599641,0.024429243353515));
#323=CARTESIAN_POINT('',(-9.870909255730201,0.491299747343667,0.048887179691497));
#324=CARTESIAN_POINT('',(-9.877308905696154,0.478715694591879,0.133885574896087));
#325=CARTESIAN_POINT('',(-9.887414923496602,0.458796108246868,0.191634933591910));
#326=CARTESIAN_POINT('',(-9.914124686973320,0.396915206228235,0.302278539862257));
#327=CARTESIAN_POINT('',(-9.931006846999816,0.353089976455064,0.353317124239977));
#328=CARTESIAN_POINT('',(-9.959552266274164,0.252748394858474,0.431573020216054));
#329=CARTESIAN_POINT('',(-9.971389251694390,0.198140447295516,0.460181683031225));
#330=CARTESIAN_POINT('',(-9.984509240865769,0.093989532646480,0.491976500292828));
#331=CARTESIAN_POINT('',(-9.987527250841350,0.047218872112213,0.499299350091609));
#332=CARTESIAN_POINT('',(-9.987494569854302,-5.892554E-017,0.499952214847419));
#333=B_SPLINE_CURVE_WITH_KNOTS('',3,(#321,#322,#323,#324,#325,#326,#327,#328,#329,#330,#331,#332),.UNSPECIFIED.,.F.,.U.,(4,2,2,2,2,4),(-1.599807489737152,-1.525781713971065,-1.341298709328195,-1.136450076146974,-0.949870004846290,-0.807452792919473),.UNSPECIFIED.);
#334=EDGE_CURVE('',#298,#142,#333,.T.);
#335=ORIENTED_EDGE('',*,*,#334,.F.);
#336=EDGE_LOOP('',(#304,#313,#319,#320,#335));
#337=FACE_OUTER_BOUND('',#336,.T.);
#338=ADVANCED_FACE('',(#337),#294,.T.);
#339=CARTESIAN_POINT('',(-11.612417780852226,-0.006912515400359,0.0));
#340=DIRECTION('',(1.0,0.0,0.0));
#341=DIRECTION('',(0.0,1.0,0.0));
#342=AXIS2_PLACEMENT_3D('',#339,#340,#341);
#343=CYLINDRICAL_SURFACE('',#342,0.500000000000000);
#344=ORIENTED_EDGE('',*,*,#303,.T.);
#345=CARTESIAN_POINT('',(-9.987494569854301,-1.045164E-016,-0.499952214847419));
#346=CARTESIAN_POINT('',(-9.987518539075129,0.034631743875060,-0.499473384159669));
#347=CARTESIAN_POINT('',(-9.985910395363160,0.069165835646620,-0.495401300087728));
#348=CARTESIAN_POINT('',(-9.976933430874823,0.165943155112978,-0.473572217176718));
#349=CARTESIAN_POINT('',(-9.965938214393892,0.224747869084578,-0.447582003148758));
#350=CARTESIAN_POINT('',(-9.937887478507513,0.332720272143409,-0.373177497883665));
#351=CARTESIAN_POINT('',(-9.920661356603965,0.380144733255391,-0.323683598360990));
#352=CARTESIAN_POINT('',(-9.892159308269161,0.448791080678670,-0.214644646527087));
#353=CARTESIAN_POINT('',(-9.880686931290574,0.471928023893244,-0.156870133406204));
#354=CARTESIAN_POINT('',(-9.871583706786165,0.490017935121125,-0.064002908842571));
#355=CARTESIAN_POINT('',(-9.869979731103662,0.493087484599641,-0.032026110321019));
#356=CARTESIAN_POINT('',(-9.869979731103662,0.493087484599641,-8.520404E-017));
#357=B_SPLINE_CURVE_WITH_KNOTS('',3,(#345,#346,#347,#348,#349,#350,#351,#352,#353,#354,#355,#356),.UNSPECIFIED.,.F.,.U.,(4,2,2,2,2,4),(-2.392198323508652,-2.287429768520291,-2.093438214800431,-1.885037645927574,-1.696853379655906,-1.599807489737152),.UNSPECIFIED.);
#358=EDGE_CURVE('',#170,#298,#357,.T.);
#359=ORIENTED_EDGE('',*,*,#358,.F.);
#360=ORIENTED_EDGE('',*,*,#184,.F.);
#361=ORIENTED_EDGE('',*,*,#318,.T.);
#362=CARTESIAN_POINT('',(-14.112417780852226,-0.006912515400359,0.0));
#363=DIRECTION('',(1.0,0.0,0.0));
#364=DIRECTION('',(0.0,1.0,0.0));
#365=AXIS2_PLACEMENT_3D('',#362,#363,#364);
#366=CIRCLE('',#365,0.500000000000000);
#367=EDGE_CURVE('',#306,#296,#366,.T.);
#368=ORIENTED_EDGE('',*,*,#367,.T.);
#369=EDGE_LOOP('',(#344,#359,#360,#361,#368));
#370=FACE_OUTER_BOUND('',#369,.T.);
#371=ADVANCED_FACE('',(#370),#343,.T.);
#372=CARTESIAN_POINT('',(-14.112417780852226,0.243087484599641,0.0));
#373=DIRECTION('',(-1.0,0.0,0.0));
#374=DIRECTION('',(0.0,0.0,1.0));
#375=AXIS2_PLACEMENT_3D('',#372,#373,#374);
#376=PLANE('',#375);
#377=ORIENTED_EDGE('',*,*,#312,.F.);
#378=ORIENTED_EDGE('',*,*,#367,.F.);
#379=EDGE_LOOP('',(#377,#378));
#380=FACE_OUTER_BOUND('',#379,.T.);
#381=ADVANCED_FACE('',(#380),#376,.T.);
#382=CARTESIAN_POINT('',(-4.066987298107783,0.500000000000000,0.0));
#383=DIRECTION('',(0.0,1.0,0.0));
#384=DIRECTION('',(0.0,0.0,1.0));
#385=AXIS2_PLACEMENT_3D('',#382,#383,#384);
#386=PLANE('',#385);
#387=CARTESIAN_POINT('',(-8.133974596215566,0.500000000000000,0.0));
#388=VERTEX_POINT('',#387);
#389=CARTESIAN_POINT('',(-1.835354E-016,0.500000000000001,0.0));
#390=DIRECTION('',(0.0,1.0,0.0));
#391=DIRECTION('',(-1.0,0.0,0.0));
#392=AXIS2_PLACEMENT_3D('',#389,#390,#391);
#393=CIRCLE('',#392,8.133974596215566);
#394=EDGE_CURVE('',#388,#272,#393,.T.);
#395=ORIENTED_EDGE('',*,*,#394,.T.);
#396=ORIENTED_EDGE('',*,*,#278,.T.);
#397=CARTESIAN_POINT('',(-1.835354E-016,0.500000000000001,0.0));
#398=DIRECTION('',(0.0,1.0,0.0));
#399=DIRECTION('',(-1.0,0.0,0.0));
#400=AXIS2_PLACEMENT_3D('',#397,#398,#399);
#401=CIRCLE('',#400,8.133974596215566);
#402=EDGE_CURVE('',#263,#388,#401,.T.);
#403=ORIENTED_EDGE('',*,*,#402,.T.);
#404=EDGE_LOOP('',(#395,#396,#403));
#405=FACE_OUTER_BOUND('',#404,.T.);
#406=ADVANCED_FACE('',(#405),#386,.T.);
#407=CARTESIAN_POINT('',(-4.066987298107783,-0.500000000000014,0.0));
#408=DIRECTION('',(0.0,-1.0,0.0));
#409=DIRECTION('',(0.0,0.0,-1.0));
#410=AXIS2_PLACEMENT_3D('',#407,#408,#409);
#411=PLANE('',#410);
#412=ORIENTED_EDGE('',*,*,#220,.F.);
#413=ORIENTED_EDGE('',*,*,#211,.F.);
#414=ORIENTED_EDGE('',*,*,#250,.F.);
#415=EDGE_LOOP('',(#412,#413,#414));
#416=FACE_OUTER_BOUND('',#415,.T.);
#417=ADVANCED_FACE('',(#416),#411,.T.);
#418=CARTESIAN_POINT('',(0.0,1.110223E-015,0.0));
#419=DIRECTION('',(-1.224606E-016,1.0,0.0));
#420=DIRECTION('',(0.0,0.0,1.0));
#421=AXIS2_PLACEMENT_3D('',#418,#419,#420);
#422=TOROIDAL_SURFACE('',#421,9.0,1.0);
#423=ORIENTED_EDGE('',*,*,#150,.T.);
#424=ORIENTED_EDGE('',*,*,#285,.T.);
#425=ORIENTED_EDGE('',*,*,#394,.F.);
#426=ORIENTED_EDGE('',*,*,#402,.F.);
#427=ORIENTED_EDGE('',*,*,#269,.T.);
#428=ORIENTED_EDGE('',*,*,#193,.T.);
#429=ORIENTED_EDGE('',*,*,#358,.T.);
#430=ORIENTED_EDGE('',*,*,#334,.T.);
#431=EDGE_LOOP('',(#423,#424,#425,#426,#427,#428,#429,#430));
#432=FACE_OUTER_BOUND('',#431,.T.);
#433=ADVANCED_FACE('',(#432),#422,.T.);
#434=CLOSED_SHELL('',(#231,#255,#289,#338,#371,#381,#406,#417,#433));
#435=SHELL_BASED_SURFACE_MODEL('',(#434));
#436=MANIFOLD_SURFACE_SHAPE_REPRESENTATION('',(#435),#129);
#437=SHAPE_REPRESENTATION_RELATIONSHIP('SRRPL1',' ',#436,#133);
#438=CARTESIAN_POINT('NONE',(100.687300551067810,206.236975887173090,0.0));
#439=DIRECTION('NONE',(0.0,0.0,1.0));
#440=DIRECTION('NONE',(1.0,0.0,0.0));
#441=AXIS2_PLACEMENT_3D('NONE',#438,#439,#440);
#442=ITEM_DEFINED_TRANSFORMATION('IDT1',' ',#121,#441);
#446=(REPRESENTATION_RELATIONSHIP(' ',' ',#133,#122)REPRESENTATION_RELATIONSHIP_WITH_TRANSFORMATION(#442)SHAPE_REPRESENTATION_RELATIONSHIP());
#447=NEXT_ASSEMBLY_USAGE_OCCURRENCE('NAUO1','PART1_1','PART1_1',#93,#132,$);
#448=PRODUCT_DEFINITION_SHAPE('PDS_NAUO1',' ',#447);
#449=CONTEXT_DEPENDENT_SHAPE_REPRESENTATION(#446,#448);
ENDSEC;
END-ISO-10303-21;
