ISO-10303-21;
HEADER;
FILE_DESCRIPTION (( 'STEP AP214' ),
    '1' );
FILE_NAME ('07_057_2.STEP',
    '2016-07-15T10:13:54',
    ( '' ),
    ( '' ),
    'SwSTEP 2.0',
    'SolidWorks 2016',
    '' );
FILE_SCHEMA (( 'AUTOMOTIVE_DESIGN' ));
ENDSEC;

DATA;
#1 = ADVANCED_FACE ( 'NONE', ( #197 ), #308, .F. ) ;
#2 = EDGE_CURVE ( 'NONE', #385, #58, #320, .T. ) ;
#3 = ORIENTED_EDGE ( 'NONE', *, *, #292, .F. ) ;
#4 = AXIS2_PLACEMENT_3D ( 'NONE', #354, #134, #43 ) ;
#5 = ORIENTED_EDGE ( 'NONE', *, *, #253, .F. ) ;
#6 = CIRCLE ( 'NONE', #311, 0.8899999999999999000 ) ;
#7 = DIRECTION ( 'NONE',  ( 0.0000000000000000000, -3.491481338843133400E-015, 1.000000000000000000 ) ) ;
#8 =( LENGTH_UNIT ( ) NAMED_UNIT ( * ) SI_UNIT ( .MILLI., .METRE. ) );
#9 = CARTESIAN_POINT ( 'NONE',  ( 5.525474257427728000, 5.497896750039551300, 7.034062386545906000 ) ) ;
#10 = APPLICATION_PROTOCOL_DEFINITION ( 'draft international standard', 'automotive_design', 1998, #127 ) ;
#11 = AXIS2_PLACEMENT_3D ( 'NONE', #391, #206, #19 ) ;
#12 = VERTEX_POINT ( 'NONE', #181 ) ;
#13 = CIRCLE ( 'NONE', #250, 4.365000000000008200 ) ;
#14 = DIRECTION ( 'NONE',  ( 0.0000000000000000000, -3.491481338843133400E-015, 1.000000000000000000 ) ) ;
#15 = CARTESIAN_POINT ( 'NONE',  ( 5.525474257427728000, 5.497896750039559200, 4.484062386545907100 ) ) ;
#16 = DIRECTION ( 'NONE',  ( 0.01896775787560289700, 0.9998200958978432600, 3.490853207027685000E-015 ) ) ;
#17 =( GEOMETRIC_REPRESENTATION_CONTEXT ( 3 ) GLOBAL_UNCERTAINTY_ASSIGNED_CONTEXT ( ( #45 ) ) GLOBAL_UNIT_ASSIGNED_CONTEXT ( ( #294, #299, #203 ) ) REPRESENTATION_CONTEXT ( 'NONE', 'WORKASPACE' ) );
#18 = CARTESIAN_POINT ( 'NONE',  ( 5.525474257427728000, 5.497896750039559200, 4.484062386545907100 ) ) ;
#19 = DIRECTION ( 'NONE',  ( 0.0000000000000000000, -1.000000000000000000, -3.491481338843133400E-015 ) ) ;
#20 = ORIENTED_EDGE ( 'NONE', *, *, #390, .F. ) ;
#21 = EDGE_CURVE ( 'NONE', #47, #205, #389, .T. ) ;
#22 = DIRECTION ( 'NONE',  ( 0.0000000000000000000, -1.000000000000000000, -3.548298019043468700E-015 ) ) ;
#23 = CARTESIAN_POINT ( 'NONE',  ( 5.525474257427728000, 0.03289675003955491000, 4.484062386545887500 ) ) ;
#24 =( GEOMETRIC_REPRESENTATION_CONTEXT ( 3 ) GLOBAL_UNCERTAINTY_ASSIGNED_CONTEXT ( ( #60 ) ) GLOBAL_UNIT_ASSIGNED_CONTEXT ( ( #88, #303, #118 ) ) REPRESENTATION_CONTEXT ( 'NONE', 'WORKASPACE' ) );
#25 = CARTESIAN_POINT ( 'NONE',  ( 5.408917385282149000, -0.6459977392526971000, 4.484062386545884800 ) ) ;
#26 =( GEOMETRIC_REPRESENTATION_CONTEXT ( 3 ) GLOBAL_UNCERTAINTY_ASSIGNED_CONTEXT ( ( #217 ) ) GLOBAL_UNIT_ASSIGNED_CONTEXT ( ( #8, #158, #35 ) ) REPRESENTATION_CONTEXT ( 'NONE', 'WORKASPACE' ) );
#27 =( NAMED_UNIT ( * ) SI_UNIT ( $, .STERADIAN. ) SOLID_ANGLE_UNIT ( ) );
#28 = APPLICATION_CONTEXT ( 'automotive_design' ) ;
#29 = ORIENTED_EDGE ( 'NONE', *, *, #93, .T. ) ;
#30 = ORIENTED_EDGE ( 'NONE', *, *, #369, .T. ) ;
#31 = CIRCLE ( 'NONE', #65, 0.8900000000000001200 ) ;
#32 = AXIS2_PLACEMENT_3D ( 'NONE', #174, #140, #331 ) ;
#33 = CIRCLE ( 'NONE', #4, 4.400000000000000400 ) ;
#34 = CARTESIAN_POINT ( 'NONE',  ( 5.525474257427728000, 5.497896750039442900, 37.84138745423180700 ) ) ;
#35 =( NAMED_UNIT ( * ) SI_UNIT ( $, .STERADIAN. ) SOLID_ANGLE_UNIT ( ) );
#36 = AXIS2_PLACEMENT_3D ( 'NONE', #289, #229, #351 ) ;
#37 = VERTEX_POINT ( 'NONE', #182 ) ;
#38 = SHAPE_DEFINITION_REPRESENTATION ( #293, #55 ) ;
#39 = CARTESIAN_POINT ( 'NONE',  ( 5.608268520554735100, 9.862111468633655100, 4.484062386545922200 ) ) ;
#40 = CARTESIAN_POINT ( 'NONE',  ( 5.442679994300721800, 1.133682031445464300, 4.484062386545891100 ) ) ;
#41 = DIRECTION ( 'NONE',  ( 0.01896775787560289700, 0.9998200958978432600, 3.490853207027685000E-015 ) ) ;
#42 = AXIS2_PLACEMENT_3D ( 'NONE', #204, #362, #53 ) ;
#43 = DIRECTION ( 'NONE',  ( 0.0000000000000000000, -1.000000000000000000, -3.548298019043468700E-015 ) ) ;
#44 = AXIS2_PLACEMENT_3D ( 'NONE', #196, #287, #383 ) ;
#45 = UNCERTAINTY_MEASURE_WITH_UNIT (LENGTH_MEASURE( 1.000000000000000100E-005 ), #294, 'distance_accuracy_value', 'NONE');
#46 = CARTESIAN_POINT ( 'NONE',  ( 5.525474257427728000, 5.497896750039559200, 4.484062386545907100 ) ) ;
#47 = VERTEX_POINT ( 'NONE', #310 ) ;
#48 = FACE_OUTER_BOUND ( 'NONE', #302, .T. ) ;
#49 = AXIS2_PLACEMENT_3D ( 'NONE', #348, #259, #72 ) ;
#50 = FILL_AREA_STYLE_COLOUR ( '', #241 ) ;
#51 = DIRECTION ( 'NONE',  ( 0.01896775787560289700, 0.9998200958978432600, 3.490853207027685000E-015 ) ) ;
#52 = EDGE_LOOP ( 'NONE', ( #209, #107 ) ) ;
#53 = DIRECTION ( 'NONE',  ( 0.01896775787560289700, 0.9998200958978432600, 3.490853207027685000E-015 ) ) ;
#54 = DIRECTION ( 'NONE',  ( 0.0000000000000000000, -3.491481338843133400E-015, 1.000000000000000000 ) ) ;
#55 = ADVANCED_BREP_SHAPE_REPRESENTATION ( '07_057_2', ( #175, #352, #326 ), #148 ) ;
#56 = SURFACE_STYLE_USAGE ( .BOTH. , #333 ) ;
#57 = FILL_AREA_STYLE ('',( #146 ) ) ;
#58 = VERTEX_POINT ( 'NONE', #40 ) ;
#59 = AXIS2_PLACEMENT_3D ( 'NONE', #165, #384, #198 ) ;
#60 = UNCERTAINTY_MEASURE_WITH_UNIT (LENGTH_MEASURE( 1.000000000000000100E-005 ), #88, 'distance_accuracy_value', 'NONE');
#61 = ADVANCED_FACE ( 'NONE', ( #225 ), #244, .F. ) ;
#62 = ORIENTED_EDGE ( 'NONE', *, *, #313, .T. ) ;
#63 = ORIENTED_EDGE ( 'NONE', *, *, #195, .T. ) ;
#64 = AXIS2_PLACEMENT_3D ( 'NONE', #360, #54, #297 ) ;
#65 = AXIS2_PLACEMENT_3D ( 'NONE', #23, #143, #269 ) ;
#66 = CARTESIAN_POINT ( 'NONE',  ( 5.525474257427728900, 10.26318252265813100, 3.934062386545923200 ) ) ;
#67 = ORIENTED_EDGE ( 'NONE', *, *, #306, .T. ) ;
#68 = PRODUCT ( '07_057_2', '07_057_2', '', ( #258 ) ) ;
#69 = PLANE ( 'NONE',  #49 ) ;
#70 = AXIS2_PLACEMENT_3D ( 'NONE', #337, #7, #152 ) ;
#71 = EDGE_LOOP ( 'NONE', ( #319, #324, #90, #305 ) ) ;
#72 = DIRECTION ( 'NONE',  ( 0.0000000000000000000, -1.000000000000000000, -3.491481338843133400E-015 ) ) ;
#73 = FACE_OUTER_BOUND ( 'NONE', #124, .T. ) ;
#74 = DIRECTION ( 'NONE',  ( 0.0000000000000000000, -3.491481338843133400E-015, 1.000000000000000000 ) ) ;
#75 = EDGE_LOOP ( 'NONE', ( #3, #79, #131, #63 ) ) ;
#76 = PRESENTATION_STYLE_ASSIGNMENT (( #56 ) ) ;
#77 = AXIS2_PLACEMENT_3D ( 'NONE', #105, #133, #101 ) ;
#78 = CARTESIAN_POINT ( 'NONE',  ( 5.625149825064021900, 10.75195135398273500, 4.484062386545924800 ) ) ;
#79 = ORIENTED_EDGE ( 'NONE', *, *, #334, .F. ) ;
#80 = VECTOR ( 'NONE', #113, 1000.000000000000000 ) ;
#81 = DIRECTION ( 'NONE',  ( -0.01896775787560286600, -0.9998200958978432600, 0.0000000000000000000 ) ) ;
#82 = PRODUCT_RELATED_PRODUCT_CATEGORY ( 'part', '', ( #68 ) ) ;
#83 = DIRECTION ( 'NONE',  ( 2.834968878138011200E-031, 3.491481338843146400E-015, -1.000000000000000000 ) ) ;
#84 = CARTESIAN_POINT ( 'NONE',  ( 5.525474257427728900, 9.897896750039555200, 7.034062386545921100 ) ) ;
#85 = STYLED_ITEM ( 'NONE', ( #194 ), #175 ) ;
#86 = ORIENTED_EDGE ( 'NONE', *, *, #357, .F. ) ;
#87 = APPLICATION_PROTOCOL_DEFINITION ( 'draft international standard', 'automotive_design', 1998, #28 ) ;
#88 =( LENGTH_UNIT ( ) NAMED_UNIT ( * ) SI_UNIT ( .MILLI., .METRE. ) );
#89 = ADVANCED_FACE ( 'NONE', ( #142 ), #380, .F. ) ;
#90 = ORIENTED_EDGE ( 'NONE', *, *, #261, .T. ) ;
#91 = AXIS2_PLACEMENT_3D ( 'NONE', #213, #373, #314 ) ;
#92 = FACE_OUTER_BOUND ( 'NONE', #99, .T. ) ;
#93 = EDGE_CURVE ( 'NONE', #37, #12, #132, .T. ) ;
#94 = CLOSED_SHELL ( 'NONE', ( #246, #371, #307, #372 ) ) ;
#95 = CIRCLE ( 'NONE', #77, 4.765285772618569600 ) ;
#96 = DIRECTION ( 'NONE',  ( 0.0000000000000000000, 1.000000000000000000, 3.491481338843133400E-015 ) ) ;
#97 = AXIS2_PLACEMENT_3D ( 'NONE', #233, #359, #51 ) ;
#98 = DIRECTION ( 'NONE',  ( 0.0000000000000000000, -1.000000000000000000, -3.154042683594192500E-015 ) ) ;
#99 = EDGE_LOOP ( 'NONE', ( #154, #285, #234, #187 ) ) ;
#100 = FACE_OUTER_BOUND ( 'NONE', #75, .T. ) ;
#101 = DIRECTION ( 'NONE',  ( 0.0000000000000000000, -1.000000000000000000, -3.458317886510260900E-015 ) ) ;
#102 = CIRCLE ( 'NONE', #228, 6.145000000000009300 ) ;
#103 = PRESENTATION_LAYER_ASSIGNMENT (  '', '', ( #296 ) ) ;
#104 = DIRECTION ( 'NONE',  ( 0.0000000000000000000, 1.000000000000000000, 3.528729609391384100E-015 ) ) ;
#105 = CARTESIAN_POINT ( 'NONE',  ( 5.525474257427728000, 5.497896750039557500, 5.034062386545910400 ) ) ;
#106 = EDGE_LOOP ( 'NONE', ( #157, #388, #67, #161 ) ) ;
#107 = ORIENTED_EDGE ( 'NONE', *, *, #238, .F. ) ;
#108 = TOROIDAL_SURFACE ( 'NONE', #381, 5.255000000000009700, 0.8900000000000001200 ) ;
#109 = CARTESIAN_POINT ( 'NONE',  ( 5.525474257427728000, 5.497896750039559200, 4.484062386545907100 ) ) ;
#110 = AXIS2_PLACEMENT_3D ( 'NONE', #343, #283, #280 ) ;
#111 = DIRECTION ( 'NONE',  ( -1.000000000000000000, -0.0000000000000000000, 0.0000000000000000000 ) ) ;
#112 = DIRECTION ( 'NONE',  ( -0.9998200958978432600, 0.01896775787560288000, 6.622557266236229300E-017 ) ) ;
#113 = DIRECTION ( 'NONE',  ( 0.0000000000000000000, -3.491481338843133400E-015, 1.000000000000000000 ) ) ;
#114 = LINE ( 'NONE', #200, #356 ) ;
#115 = FACE_OUTER_BOUND ( 'NONE', #328, .T. ) ;
#116 = DIRECTION ( 'NONE',  ( 0.0000000000000000000, 1.000000000000000000, 3.576749435003719200E-015 ) ) ;
#117 = DIRECTION ( 'NONE',  ( 0.0000000000000000000, -1.000000000000000000, -3.412570772413387400E-015 ) ) ;
#118 =( NAMED_UNIT ( * ) SI_UNIT ( $, .STERADIAN. ) SOLID_ANGLE_UNIT ( ) );
#119 = VERTEX_POINT ( 'NONE', #222 ) ;
#120 = SURFACE_STYLE_FILL_AREA ( #57 ) ;
#121 = ADVANCED_FACE ( 'NONE', ( #237, #361 ), #312, .F. ) ;
#122 = CIRCLE ( 'NONE', #177, 4.400000000000004800 ) ;
#123 = TOROIDAL_SURFACE ( 'NONE', #242, 5.255000000000009700, 0.8900000000000001200 ) ;
#124 = EDGE_LOOP ( 'NONE', ( #317, #86 ) ) ;
#125 = COLOUR_RGB ( '',0.7529411764705882200, 0.7529411764705882200, 0.7529411764705882200 ) ;
#126 = DIRECTION ( 'NONE',  ( 0.9998200958978432600, -0.01896775787560275900, -6.622557266236187400E-017 ) ) ;
#127 = APPLICATION_CONTEXT ( 'automotive_design' ) ;
#128 = CARTESIAN_POINT ( 'NONE',  ( 5.525474257427728000, 1.097896750039557600, 5.034062386545894400 ) ) ;
#129 = AXIS2_PLACEMENT_3D ( 'NONE', #256, #316, #340 ) ;
#130 = FILL_AREA_STYLE_COLOUR ( '', #382 ) ;
#131 = ORIENTED_EDGE ( 'NONE', *, *, #277, .T. ) ;
#132 = CIRCLE ( 'NONE', #353, 4.765285772618569600 ) ;
#133 = DIRECTION ( 'NONE',  ( 0.0000000000000000000, -3.491481338843133400E-015, 1.000000000000000000 ) ) ;
#134 = DIRECTION ( 'NONE',  ( 0.0000000000000000000, -3.491481338843133400E-015, 1.000000000000000000 ) ) ;
#135 = DIRECTION ( 'NONE',  ( 2.834968878138011200E-031, 3.491481338843146400E-015, -1.000000000000000000 ) ) ;
#136 = CARTESIAN_POINT ( 'NONE',  ( 5.525474257427728000, 5.497896750039442900, 37.84138745423180700 ) ) ;
#137 = ORIENTED_EDGE ( 'NONE', *, *, #357, .T. ) ;
#138 = PRESENTATION_LAYER_ASSIGNMENT (  '', '', ( #208 ) ) ;
#139 = DIRECTION ( 'NONE',  ( 2.834968878138011200E-031, 3.491481338843146400E-015, -1.000000000000000000 ) ) ;
#140 = DIRECTION ( 'NONE',  ( 0.0000000000000000000, -3.491481338843133400E-015, 1.000000000000000000 ) ) ;
#141 = ORIENTED_EDGE ( 'NONE', *, *, #390, .T. ) ;
#142 = FACE_OUTER_BOUND ( 'NONE', #290, .T. ) ;
#143 = DIRECTION ( 'NONE',  ( -1.000000000000000000, -0.0000000000000000000, 0.0000000000000000000 ) ) ;
#144 = CARTESIAN_POINT ( 'NONE',  ( 5.525474257427728900, 9.897896750039446800, 37.84138745423182100 ) ) ;
#145 = AXIS2_PLACEMENT_3D ( 'NONE', #321, #135, #263 ) ;
#146 = FILL_AREA_STYLE_COLOUR ( '', #125 ) ;
#147 = ORIENTED_EDGE ( 'NONE', *, *, #322, .F. ) ;
#148 =( GEOMETRIC_REPRESENTATION_CONTEXT ( 3 ) GLOBAL_UNCERTAINTY_ASSIGNED_CONTEXT ( ( #168 ) ) GLOBAL_UNIT_ASSIGNED_CONTEXT ( ( #392, #272, #27 ) ) REPRESENTATION_CONTEXT ( 'NONE', 'WORKASPACE' ) );
#149 = EDGE_LOOP ( 'NONE', ( #355, #370, #62, #178 ) ) ;
#150 = FACE_OUTER_BOUND ( 'NONE', #149, .T. ) ;
#151 = VERTEX_POINT ( 'NONE', #39 ) ;
#152 = DIRECTION ( 'NONE',  ( 0.0000000000000000000, -1.000000000000000000, -3.491481338843133400E-015 ) ) ;
#153 = ADVANCED_FACE ( 'NONE', ( #73 ), #69, .F. ) ;
#154 = ORIENTED_EDGE ( 'NONE', *, *, #330, .T. ) ;
#155 = FILL_AREA_STYLE ('',( #130 ) ) ;
#156 = CARTESIAN_POINT ( 'NONE',  ( 5.525474257427728000, 5.497896750039557500, 5.034062386545910400 ) ) ;
#157 = ORIENTED_EDGE ( 'NONE', *, *, #347, .F. ) ;
#158 =( NAMED_UNIT ( * ) PLANE_ANGLE_UNIT ( ) SI_UNIT ( $, .RADIAN. ) );
#159 = DIRECTION ( 'NONE',  ( 0.0000000000000000000, -1.000000000000000000, -3.412570772413387400E-015 ) ) ;
#160 = DIRECTION ( 'NONE',  ( 0.0000000000000000000, -1.000000000000000000, -3.548298019043465200E-015 ) ) ;
#161 = ORIENTED_EDGE ( 'NONE', *, *, #300, .F. ) ;
#162 = LINE ( 'NONE', #144, #80 ) ;
#163 = PRESENTATION_LAYER_ASSIGNMENT (  '', '', ( #85 ) ) ;
#164 = CARTESIAN_POINT ( 'NONE',  ( 5.525474257427728000, 5.497896750039551300, 7.034062386545905100 ) ) ;
#165 = CARTESIAN_POINT ( 'NONE',  ( 5.525474257427728000, 5.497896750039559200, 4.484062386545907100 ) ) ;
#166 = DIRECTION ( 'NONE',  ( 0.0000000000000000000, -3.491481338843133400E-015, 1.000000000000000000 ) ) ;
#167 = ORIENTED_EDGE ( 'NONE', *, *, #2, .F. ) ;
#168 = UNCERTAINTY_MEASURE_WITH_UNIT (LENGTH_MEASURE( 1.000000000000000100E-005 ), #392, 'distance_accuracy_value', 'NONE');
#169 = FACE_OUTER_BOUND ( 'NONE', #106, .T. ) ;
#170 = AXIS2_PLACEMENT_3D ( 'NONE', #207, #274, #117 ) ;
#171 = CARTESIAN_POINT ( 'NONE',  ( 5.525474257427728000, 0.7326109774209929000, 3.934062386545890400 ) ) ;
#172 = SURFACE_STYLE_USAGE ( .BOTH. , #327 ) ;
#173 = EDGE_LOOP ( 'NONE', ( #281, #201, #230, #265 ) ) ;
#174 = CARTESIAN_POINT ( 'NONE',  ( 5.525474257427728000, 5.497896750039551300, 7.034062386545905100 ) ) ;
#175 = MANIFOLD_SOLID_BREP ( 'Defeature completata1', #94 ) ;
#176 = DIRECTION ( 'NONE',  ( -0.01896775787560286600, -0.9998200958978432600, 0.0000000000000000000 ) ) ;
#177 = AXIS2_PLACEMENT_3D ( 'NONE', #164, #226, #160 ) ;
#178 = ORIENTED_EDGE ( 'NONE', *, *, #334, .T. ) ;
#179 = ORIENTED_EDGE ( 'NONE', *, *, #300, .T. ) ;
#180 = CIRCLE ( 'NONE', #273, 0.8899999999999999000 ) ;
#181 = CARTESIAN_POINT ( 'NONE',  ( 5.525474257427728900, 10.26318252265812700, 5.034062386545927300 ) ) ;
#182 = CARTESIAN_POINT ( 'NONE',  ( 5.525474257427728000, 0.7326109774209874600, 5.034062386545893600 ) ) ;
#183 = TOROIDAL_SURFACE ( 'NONE', #59, 5.465000000000004300, 0.8899999999999999000 ) ;
#184 = MECHANICAL_DESIGN_GEOMETRIC_PRESENTATION_REPRESENTATION (  '', ( #296 ), #17 ) ;
#185 = CARTESIAN_POINT ( 'NONE',  ( 9.925474257427728400, 5.497896750039557500, 5.034062386545906900 ) ) ;
#186 = DIRECTION ( 'NONE',  ( 0.01896775787560285900, 0.9998200958978431500, 0.0000000000000000000 ) ) ;
#187 = ORIENTED_EDGE ( 'NONE', *, *, #306, .F. ) ;
#188 = DIRECTION ( 'NONE',  ( 1.000000000000000000, 0.0000000000000000000, 0.0000000000000000000 ) ) ;
#189 = EDGE_LOOP ( 'NONE', ( #255, #345, #137, #147 ) ) ;
#190 = FACE_OUTER_BOUND ( 'NONE', #189, .T. ) ;
#191 = CARTESIAN_POINT ( 'NONE',  ( 0.0000000000000000000, 0.0000000000000000000, 0.0000000000000000000 ) ) ;
#192 = CARTESIAN_POINT ( 'NONE',  ( 5.525474257427728900, 9.897896750039558700, 5.034062386545926400 ) ) ;
#193 = AXIS2_PLACEMENT_3D ( 'NONE', #34, #375, #98 ) ;
#194 = PRESENTATION_STYLE_ASSIGNMENT (( #284 ) ) ;
#195 = EDGE_CURVE ( 'NONE', #58, #385, #278, .T. ) ;
#196 = CARTESIAN_POINT ( 'NONE',  ( 5.525474257427728000, 5.497896750039561000, 3.934062386545906800 ) ) ;
#197 = FACE_OUTER_BOUND ( 'NONE', #240, .T. ) ;
#198 = DIRECTION ( 'NONE',  ( 0.0000000000000000000, -1.000000000000000000, -3.491481338843133400E-015 ) ) ;
#199 = DIRECTION ( 'NONE',  ( 0.0000000000000000000, -1.000000000000000000, -3.154042683594192500E-015 ) ) ;
#200 = CARTESIAN_POINT ( 'NONE',  ( 5.525474257427728000, 1.097896750039440300, 37.84138745423179300 ) ) ;
#201 = ORIENTED_EDGE ( 'NONE', *, *, #376, .T. ) ;
#202 = AXIS2_PLACEMENT_3D ( 'NONE', #136, #386, #199 ) ;
#203 =( NAMED_UNIT ( * ) SI_UNIT ( $, .STERADIAN. ) SOLID_ANGLE_UNIT ( ) );
#204 = CARTESIAN_POINT ( 'NONE',  ( 5.525474257427728000, 5.497896750039559200, 4.484062386545907100 ) ) ;
#205 = VERTEX_POINT ( 'NONE', #66 ) ;
#206 = DIRECTION ( 'NONE',  ( 0.0000000000000000000, -3.491481338843133400E-015, 1.000000000000000000 ) ) ;
#207 = CARTESIAN_POINT ( 'NONE',  ( 5.525474257427728000, 5.497896750039559200, 4.484062386545907100 ) ) ;
#208 = STYLED_ITEM ( 'NONE', ( #76 ), #55 ) ;
#209 = ORIENTED_EDGE ( 'NONE', *, *, #330, .F. ) ;
#210 = ADVANCED_FACE ( 'NONE', ( #92 ), #339, .T. ) ;
#211 = MECHANICAL_DESIGN_GEOMETRIC_PRESENTATION_REPRESENTATION (  '', ( #85 ), #26 ) ;
#212 = VERTEX_POINT ( 'NONE', #249 ) ;
#213 = CARTESIAN_POINT ( 'NONE',  ( 5.525474257427728000, 5.497896750039559200, 4.484062386545907100 ) ) ;
#214 = TOROIDAL_SURFACE ( 'NONE', #42, 5.255000000000009700, 0.8900000000000001200 ) ;
#215 = VERTEX_POINT ( 'NONE', #128 ) ;
#216 = SURFACE_STYLE_FILL_AREA ( #155 ) ;
#217 = UNCERTAINTY_MEASURE_WITH_UNIT (LENGTH_MEASURE( 1.000000000000000100E-005 ), #8, 'distance_accuracy_value', 'NONE');
#218 = ORIENTED_EDGE ( 'NONE', *, *, #295, .T. ) ;
#219 = DIRECTION ( 'NONE',  ( 0.0000000000000000000, 3.491481338843133400E-015, -1.000000000000000000 ) ) ;
#220 = DIRECTION ( 'NONE',  ( 0.0000000000000000000, 3.491481338843133400E-015, -1.000000000000000000 ) ) ;
#221 = AXIS2_PLACEMENT_3D ( 'NONE', #15, #74, #159 ) ;
#222 = CARTESIAN_POINT ( 'NONE',  ( 5.642031129573307900, 11.64179123933181600, 4.484062386545928400 ) ) ;
#223 = VERTEX_POINT ( 'NONE', #378 ) ;
#224 = ORIENTED_EDGE ( 'NONE', *, *, #277, .F. ) ;
#225 = FACE_OUTER_BOUND ( 'NONE', #71, .T. ) ;
#226 = DIRECTION ( 'NONE',  ( 0.0000000000000000000, -3.491481338843133400E-015, 1.000000000000000000 ) ) ;
#227 = DIRECTION ( 'NONE',  ( 0.0000000000000000000, 1.000000000000000000, 3.576749435003719200E-015 ) ) ;
#228 = AXIS2_PLACEMENT_3D ( 'NONE', #286, #323, #104 ) ;
#229 = DIRECTION ( 'NONE',  ( 1.000000000000000000, -1.224646799147353200E-016, -4.275831445896958600E-031 ) ) ;
#230 = ORIENTED_EDGE ( 'NONE', *, *, #363, .F. ) ;
#231 = CIRCLE ( 'NONE', #288, 0.8900000000000001200 ) ;
#232 = DIRECTION ( 'NONE',  ( 2.834968878138011200E-031, 3.491481338843146400E-015, -1.000000000000000000 ) ) ;
#233 = CARTESIAN_POINT ( 'NONE',  ( 5.525474257427728000, 5.497896750039559200, 4.484062386545907100 ) ) ;
#234 = ORIENTED_EDGE ( 'NONE', *, *, #369, .F. ) ;
#235 = TOROIDAL_SURFACE ( 'NONE', #11, 5.465000000000004300, 0.8899999999999999000 ) ;
#236 = AXIS2_PLACEMENT_3D ( 'NONE', #185, #219, #96 ) ;
#237 = FACE_BOUND ( 'NONE', #52, .T. ) ;
#238 = EDGE_CURVE ( 'NONE', #243, #215, #33, .T. ) ;
#239 = PRODUCT_DEFINITION_CONTEXT ( 'detailed design', #127, 'design' ) ;
#240 = EDGE_LOOP ( 'NONE', ( #365, #247, #5, #298 ) ) ;
#241 = COLOUR_RGB ( '',0.6470588235294118000, 0.5137254901960783800, 0.0000000000000000000 ) ;
#242 = AXIS2_PLACEMENT_3D ( 'NONE', #18, #262, #16 ) ;
#243 = VERTEX_POINT ( 'NONE', #192 ) ;
#244 = TOROIDAL_SURFACE ( 'NONE', #91, 5.465000000000004300, 0.8899999999999999000 ) ;
#245 = CARTESIAN_POINT ( 'NONE',  ( 5.425798689791435900, 0.2438421460963834400, 4.484062386545888400 ) ) ;
#246 = ADVANCED_FACE ( 'NONE', ( #115 ), #123, .T. ) ;
#247 = ORIENTED_EDGE ( 'NONE', *, *, #279, .T. ) ;
#248 = CIRCLE ( 'NONE', #260, 4.365000000000008200 ) ;
#249 = CARTESIAN_POINT ( 'NONE',  ( 5.525474257427728000, 1.097896750039546200, 7.034062386545890000 ) ) ;
#250 = AXIS2_PLACEMENT_3D ( 'NONE', #109, #83, #116 ) ;
#251 = ADVANCED_FACE ( 'NONE', ( #190 ), #183, .F. ) ;
#252 = DIRECTION ( 'NONE',  ( 0.0000000000000000000, 1.000000000000000000, 3.491481338843133400E-015 ) ) ;
#253 = EDGE_CURVE ( 'NONE', #12, #47, #270, .T. ) ;
#254 = DIRECTION ( 'NONE',  ( 0.0000000000000000000, -3.491481338843133400E-015, 1.000000000000000000 ) ) ;
#255 = ORIENTED_EDGE ( 'NONE', *, *, #376, .F. ) ;
#256 = CARTESIAN_POINT ( 'NONE',  ( 5.425798689791435900, 0.2438421460963834400, 4.484062386545888400 ) ) ;
#257 = CIRCLE ( 'NONE', #44, 4.765285772618568700 ) ;
#258 = PRODUCT_CONTEXT ( 'NONE', #28, 'mechanical' ) ;
#259 = DIRECTION ( 'NONE',  ( 0.0000000000000000000, -3.491481338843133400E-015, 1.000000000000000000 ) ) ;
#260 = AXIS2_PLACEMENT_3D ( 'NONE', #46, #232, #227 ) ;
#261 = EDGE_CURVE ( 'NONE', #374, #205, #257, .T. ) ;
#262 = DIRECTION ( 'NONE',  ( 2.834968878138011200E-031, 3.491481338843146400E-015, -1.000000000000000000 ) ) ;
#263 = DIRECTION ( 'NONE',  ( 0.0000000000000000000, 1.000000000000000000, 3.528729609391384100E-015 ) ) ;
#264 = MECHANICAL_DESIGN_GEOMETRIC_PRESENTATION_REPRESENTATION (  '', ( #208 ), #24 ) ;
#265 = ORIENTED_EDGE ( 'NONE', *, *, #295, .F. ) ;
#266 = CIRCLE ( 'NONE', #145, 6.145000000000009300 ) ;
#267 = EDGE_CURVE ( 'NONE', #385, #119, #102, .T. ) ;
#268 = CARTESIAN_POINT ( 'NONE',  ( 5.525474257427728000, 5.497896750039557500, 5.034062386545910400 ) ) ;
#269 = DIRECTION ( 'NONE',  ( 0.0000000000000000000, 0.0000000000000000000, 1.000000000000000000 ) ) ;
#270 = CIRCLE ( 'NONE', #36, 0.8900000000000001200 ) ;
#271 = CARTESIAN_POINT ( 'NONE',  ( 5.525474257427728000, 0.03289675003955491000, 4.484062386545887500 ) ) ;
#272 =( NAMED_UNIT ( * ) PLANE_ANGLE_UNIT ( ) SI_UNIT ( $, .RADIAN. ) );
#273 = AXIS2_PLACEMENT_3D ( 'NONE', #78, #112, #81 ) ;
#274 = DIRECTION ( 'NONE',  ( 0.0000000000000000000, -3.491481338843133400E-015, 1.000000000000000000 ) ) ;
#275 = EDGE_LOOP ( 'NONE', ( #29, #218 ) ) ;
#276 = CYLINDRICAL_SURFACE ( 'NONE', #202, 4.400000000000003000 ) ;
#277 = EDGE_CURVE ( 'NONE', #151, #58, #248, .T. ) ;
#278 = CIRCLE ( 'NONE', #129, 0.8900000000000002400 ) ;
#279 = EDGE_CURVE ( 'NONE', #223, #47, #350, .T. ) ;
#280 = DIRECTION ( 'NONE',  ( 0.0000000000000000000, 1.000000000000000000, 0.0000000000000000000 ) ) ;
#281 = ORIENTED_EDGE ( 'NONE', *, *, #253, .T. ) ;
#282 = CIRCLE ( 'NONE', #170, 4.575000000000004600 ) ;
#283 = DIRECTION ( 'NONE',  ( 1.000000000000000000, -1.224646799147353200E-016, -4.275831445896958600E-031 ) ) ;
#284 = SURFACE_STYLE_USAGE ( .BOTH. , #341 ) ;
#285 = ORIENTED_EDGE ( 'NONE', *, *, #347, .T. ) ;
#286 = CARTESIAN_POINT ( 'NONE',  ( 5.525474257427728000, 5.497896750039559200, 4.484062386545907100 ) ) ;
#287 = DIRECTION ( 'NONE',  ( 0.0000000000000000000, -3.491481338843133400E-015, 1.000000000000000000 ) ) ;
#288 = AXIS2_PLACEMENT_3D ( 'NONE', #271, #111, #358 ) ;
#289 = CARTESIAN_POINT ( 'NONE',  ( 5.525474257427728900, 10.96289675003956500, 4.484062386545925700 ) ) ;
#290 = EDGE_LOOP ( 'NONE', ( #30, #179 ) ) ;
#291 = CARTESIAN_POINT ( 'NONE',  ( 5.525474257427728000, 5.497896750039559200, 4.484062386545907100 ) ) ;
#292 = EDGE_CURVE ( 'NONE', #119, #385, #266, .T. ) ;
#293 = PRODUCT_DEFINITION_SHAPE ( 'NONE', 'NONE',  #344 ) ;
#294 =( LENGTH_UNIT ( ) NAMED_UNIT ( * ) SI_UNIT ( .MILLI., .METRE. ) );
#295 = EDGE_CURVE ( 'NONE', #12, #37, #95, .T. ) ;
#296 = STYLED_ITEM ( 'NONE', ( #366 ), #352 ) ;
#297 = DIRECTION ( 'NONE',  ( 0.0000000000000000000, -1.000000000000000000, -3.458317886510261700E-015 ) ) ;
#298 = ORIENTED_EDGE ( 'NONE', *, *, #93, .F. ) ;
#299 =( NAMED_UNIT ( * ) PLANE_ANGLE_UNIT ( ) SI_UNIT ( $, .RADIAN. ) );
#300 = EDGE_CURVE ( 'NONE', #379, #212, #122, .T. ) ;
#301 = CARTESIAN_POINT ( 'NONE',  ( 5.625149825064021900, 10.75195135398273500, 4.484062386545924800 ) ) ;
#302 = EDGE_LOOP ( 'NONE', ( #20, #309, #335, #224 ) ) ;
#303 =( NAMED_UNIT ( * ) PLANE_ANGLE_UNIT ( ) SI_UNIT ( $, .RADIAN. ) );
#304 = ADVANCED_FACE ( 'NONE', ( #169 ), #276, .T. ) ;
#305 = ORIENTED_EDGE ( 'NONE', *, *, #21, .F. ) ;
#306 = EDGE_CURVE ( 'NONE', #215, #212, #114, .T. ) ;
#307 = ADVANCED_FACE ( 'NONE', ( #100 ), #108, .T. ) ;
#308 = TOROIDAL_SURFACE ( 'NONE', #70, 5.465000000000004300, 0.8899999999999999000 ) ;
#309 = ORIENTED_EDGE ( 'NONE', *, *, #292, .T. ) ;
#310 = CARTESIAN_POINT ( 'NONE',  ( 5.525474257427728900, 10.07289675003956500, 4.484062386545907100 ) ) ;
#311 = AXIS2_PLACEMENT_3D ( 'NONE', #301, #364, #176 ) ;
#312 = PLANE ( 'NONE',  #236 ) ;
#313 = EDGE_CURVE ( 'NONE', #58, #151, #13, .T. ) ;
#314 = DIRECTION ( 'NONE',  ( 0.0000000000000000000, -1.000000000000000000, -3.491481338843133400E-015 ) ) ;
#315 = DIRECTION ( 'NONE',  ( 0.0000000000000000000, 0.0000000000000000000, 1.000000000000000000 ) ) ;
#316 = DIRECTION ( 'NONE',  ( 0.9998200958978432600, -0.01896775787560275900, -6.622557266236187400E-017 ) ) ;
#317 = ORIENTED_EDGE ( 'NONE', *, *, #261, .F. ) ;
#318 = CIRCLE ( 'NONE', #64, 4.765285772618568700 ) ;
#319 = ORIENTED_EDGE ( 'NONE', *, *, #279, .F. ) ;
#320 = CIRCLE ( 'NONE', #332, 0.8900000000000002400 ) ;
#321 = CARTESIAN_POINT ( 'NONE',  ( 5.525474257427728000, 5.497896750039559200, 4.484062386545907100 ) ) ;
#322 = EDGE_CURVE ( 'NONE', #223, #374, #31, .T. ) ;
#323 = DIRECTION ( 'NONE',  ( 2.834968878138011200E-031, 3.491481338843146400E-015, -1.000000000000000000 ) ) ;
#324 = ORIENTED_EDGE ( 'NONE', *, *, #322, .T. ) ;
#325 = FACE_OUTER_BOUND ( 'NONE', #173, .T. ) ;
#326 = AXIS2_PLACEMENT_3D ( 'NONE', #191, #315, #188 ) ;
#327 = SURFACE_SIDE_STYLE ('',( #329 ) ) ;
#328 = EDGE_LOOP ( 'NONE', ( #167, #393, #141, #342 ) ) ;
#329 = SURFACE_STYLE_FILL_AREA ( #387 ) ;
#330 = EDGE_CURVE ( 'NONE', #215, #243, #346, .T. ) ;
#331 = DIRECTION ( 'NONE',  ( 0.0000000000000000000, -1.000000000000000000, -3.548298019043465200E-015 ) ) ;
#332 = AXIS2_PLACEMENT_3D ( 'NONE', #245, #126, #186 ) ;
#333 = SURFACE_SIDE_STYLE ('',( #120 ) ) ;
#334 = EDGE_CURVE ( 'NONE', #151, #119, #180, .T. ) ;
#335 = ORIENTED_EDGE ( 'NONE', *, *, #2, .T. ) ;
#336 = CIRCLE ( 'NONE', #32, 4.400000000000004800 ) ;
#337 = CARTESIAN_POINT ( 'NONE',  ( 5.525474257427728000, 5.497896750039559200, 4.484062386545907100 ) ) ;
#338 = AXIS2_PLACEMENT_3D ( 'NONE', #9, #220, #252 ) ;
#339 = CYLINDRICAL_SURFACE ( 'NONE', #193, 4.400000000000003000 ) ;
#340 = DIRECTION ( 'NONE',  ( 0.01896775787560285900, 0.9998200958978431500, 0.0000000000000000000 ) ) ;
#341 = SURFACE_SIDE_STYLE ('',( #216 ) ) ;
#342 = ORIENTED_EDGE ( 'NONE', *, *, #313, .F. ) ;
#343 = CARTESIAN_POINT ( 'NONE',  ( 5.525474257427728900, 10.96289675003956500, 4.484062386545925700 ) ) ;
#344 = PRODUCT_DEFINITION ( 'NON CONOSCIUTO', '', #368, #239 ) ;
#345 = ORIENTED_EDGE ( 'NONE', *, *, #21, .T. ) ;
#346 = CIRCLE ( 'NONE', #395, 4.400000000000000400 ) ;
#347 = EDGE_CURVE ( 'NONE', #243, #379, #162, .T. ) ;
#348 = CARTESIAN_POINT ( 'NONE',  ( 5.525474257427728000, 5.497896750039561000, 3.934062386545906800 ) ) ;
#349 = CLOSED_SHELL ( 'NONE', ( #1, #367, #210, #251, #153, #61, #121, #304, #89 ) ) ;
#350 = CIRCLE ( 'NONE', #221, 4.575000000000004600 ) ;
#351 = DIRECTION ( 'NONE',  ( 0.0000000000000000000, 1.000000000000000000, 0.0000000000000000000 ) ) ;
#352 = MANIFOLD_SOLID_BREP ( 'Defeature completata2', #349 ) ;
#353 = AXIS2_PLACEMENT_3D ( 'NONE', #156, #254, #377 ) ;
#354 = CARTESIAN_POINT ( 'NONE',  ( 5.525474257427728000, 5.497896750039557500, 5.034062386545910400 ) ) ;
#355 = ORIENTED_EDGE ( 'NONE', *, *, #267, .F. ) ;
#356 = VECTOR ( 'NONE', #14, 1000.000000000000000 ) ;
#357 = EDGE_CURVE ( 'NONE', #205, #374, #318, .T. ) ;
#358 = DIRECTION ( 'NONE',  ( 0.0000000000000000000, 0.0000000000000000000, 1.000000000000000000 ) ) ;
#359 = DIRECTION ( 'NONE',  ( 2.834968878138011200E-031, 3.491481338843146400E-015, -1.000000000000000000 ) ) ;
#360 = CARTESIAN_POINT ( 'NONE',  ( 5.525474257427728000, 5.497896750039561000, 3.934062386545906800 ) ) ;
#361 = FACE_OUTER_BOUND ( 'NONE', #275, .T. ) ;
#362 = DIRECTION ( 'NONE',  ( 2.834968878138011200E-031, 3.491481338843146400E-015, -1.000000000000000000 ) ) ;
#363 = EDGE_CURVE ( 'NONE', #37, #223, #231, .T. ) ;
#364 = DIRECTION ( 'NONE',  ( -0.9998200958978432600, 0.01896775787560288000, 6.622557266236229300E-017 ) ) ;
#365 = ORIENTED_EDGE ( 'NONE', *, *, #363, .T. ) ;
#366 = PRESENTATION_STYLE_ASSIGNMENT (( #172 ) ) ;
#367 = ADVANCED_FACE ( 'NONE', ( #325 ), #235, .F. ) ;
#368 = PRODUCT_DEFINITION_FORMATION_WITH_SPECIFIED_SOURCE ( 'TUTTO', '', #68, .NOT_KNOWN. ) ;
#369 = EDGE_CURVE ( 'NONE', #212, #379, #336, .T. ) ;
#370 = ORIENTED_EDGE ( 'NONE', *, *, #195, .F. ) ;
#371 = ADVANCED_FACE ( 'NONE', ( #48 ), #214, .T. ) ;
#372 = ADVANCED_FACE ( 'NONE', ( #150 ), #394, .T. ) ;
#373 = DIRECTION ( 'NONE',  ( 0.0000000000000000000, -3.491481338843133400E-015, 1.000000000000000000 ) ) ;
#374 = VERTEX_POINT ( 'NONE', #171 ) ;
#375 = DIRECTION ( 'NONE',  ( 0.0000000000000000000, -3.491481338843133400E-015, 1.000000000000000000 ) ) ;
#376 = EDGE_CURVE ( 'NONE', #47, #223, #282, .T. ) ;
#377 = DIRECTION ( 'NONE',  ( 0.0000000000000000000, -1.000000000000000000, -3.458317886510260900E-015 ) ) ;
#378 = CARTESIAN_POINT ( 'NONE',  ( 5.525474257427728000, 0.9228967500395548500, 4.484062386545907100 ) ) ;
#379 = VERTEX_POINT ( 'NONE', #84 ) ;
#380 = PLANE ( 'NONE',  #338 ) ;
#381 = AXIS2_PLACEMENT_3D ( 'NONE', #291, #139, #41 ) ;
#382 = COLOUR_RGB ( '',0.2509803921568627400, 0.2509803921568627400, 0.2509803921568627400 ) ;
#383 = DIRECTION ( 'NONE',  ( 0.0000000000000000000, -1.000000000000000000, -3.458317886510261700E-015 ) ) ;
#384 = DIRECTION ( 'NONE',  ( 0.0000000000000000000, -3.491481338843133400E-015, 1.000000000000000000 ) ) ;
#385 = VERTEX_POINT ( 'NONE', #25 ) ;
#386 = DIRECTION ( 'NONE',  ( 0.0000000000000000000, -3.491481338843133400E-015, 1.000000000000000000 ) ) ;
#387 = FILL_AREA_STYLE ('',( #50 ) ) ;
#388 = ORIENTED_EDGE ( 'NONE', *, *, #238, .T. ) ;
#389 = CIRCLE ( 'NONE', #110, 0.8900000000000001200 ) ;
#390 = EDGE_CURVE ( 'NONE', #119, #151, #6, .T. ) ;
#391 = CARTESIAN_POINT ( 'NONE',  ( 5.525474257427728000, 5.497896750039559200, 4.484062386545907100 ) ) ;
#392 =( LENGTH_UNIT ( ) NAMED_UNIT ( * ) SI_UNIT ( .MILLI., .METRE. ) );
#393 = ORIENTED_EDGE ( 'NONE', *, *, #267, .T. ) ;
#394 = TOROIDAL_SURFACE ( 'NONE', #97, 5.255000000000009700, 0.8900000000000001200 ) ;
#395 = AXIS2_PLACEMENT_3D ( 'NONE', #268, #166, #22 ) ;
ENDSEC;
END-ISO-10303-21;
