ISO-10303-21;
HEADER;
FILE_DESCRIPTION (( 'STEP AP214' ),
    '1' );
FILE_NAME ('07_011_2.STEP',
    '2016-07-18T06:08:05',
    ( '' ),
    ( '' ),
    'SwSTEP 2.0',
    'SolidWorks 2016',
    '' );
FILE_SCHEMA (( 'AUTOMOTIVE_DESIGN' ));
ENDSEC;

DATA;
#1 = COLOUR_RGB ( '',0.6470588235294118000, 0.5137254901960783800, 0.0000000000000000000 ) ;
#2 = DIRECTION ( 'NONE',  ( 1.000000000000000000, -1.224646799147353200E-016, -4.275831445896958600E-031 ) ) ;
#3 = STYLED_ITEM ( 'NONE', ( #129 ), #348 ) ;
#4 = DIRECTION ( 'NONE',  ( 0.0000000000000000000, 1.000000000000000000, 3.533384383657897400E-015 ) ) ;
#5 = EDGE_LOOP ( 'NONE', ( #236, #203 ) ) ;
#6 = ORIENTED_EDGE ( 'NONE', *, *, #82, .F. ) ;
#7 = DIRECTION ( 'NONE',  ( 0.0000000000000000000, -1.000000000000000000, -3.416879573893709400E-015 ) ) ;
#8 = CARTESIAN_POINT ( 'NONE',  ( 4.591314060538195500, 7.882601001431401000, 6.177244706076161900 ) ) ;
#9 = TOROIDAL_SURFACE ( 'NONE', #334, 4.565000000000004800, 0.8000000000000001600 ) ;
#10 = DIRECTION ( 'NONE',  ( 0.0000000000000000000, -1.000000000000000000, -4.205390244792256100E-015 ) ) ;
#11 = AXIS2_PLACEMENT_3D ( 'NONE', #330, #333, #211 ) ;
#12 = ADVANCED_FACE ( 'NONE', ( #251 ), #361, .F. ) ;
#13 = CARTESIAN_POINT ( 'NONE',  ( 4.591314060538195500, 7.957601001431413600, 3.627244706076167000 ) ) ;
#14 = STYLED_ITEM ( 'NONE', ( #48 ), #209 ) ;
#15 = UNCERTAINTY_MEASURE_WITH_UNIT (LENGTH_MEASURE( 1.000000000000000100E-005 ), #192, 'distance_accuracy_value', 'NONE');
#16 = ORIENTED_EDGE ( 'NONE', *, *, #79, .T. ) ;
#17 = AXIS2_PLACEMENT_3D ( 'NONE', #74, #252, #189 ) ;
#18 = EDGE_LOOP ( 'NONE', ( #388, #328, #275, #40 ) ) ;
#19 = CARTESIAN_POINT ( 'NONE',  ( 4.591314060538197200, 8.566653499500299400, 4.177244706076169900 ) ) ;
#20 = FACE_OUTER_BOUND ( 'NONE', #257, .T. ) ;
#21 = PRESENTATION_LAYER_ASSIGNMENT (  '', '', ( #3 ) ) ;
#22 = CIRCLE ( 'NONE', #28, 3.765000000000004600 ) ;
#23 = ORIENTED_EDGE ( 'NONE', *, *, #258, .T. ) ;
#24 = CARTESIAN_POINT ( 'NONE',  ( 4.591314060538195500, 4.582601001431408200, 3.627244706076152300 ) ) ;
#25 = DIRECTION ( 'NONE',  ( -1.000000000000000000, -5.551115123125780200E-017, -1.938161486216356400E-031 ) ) ;
#26 = DIRECTION ( 'NONE',  ( 0.0000000000000000000, -3.491481338843133400E-015, 1.000000000000000000 ) ) ;
#27 = DIRECTION ( 'NONE',  ( 0.0000000000000000000, 1.000000000000000000, 3.491481338843133000E-015 ) ) ;
#28 = AXIS2_PLACEMENT_3D ( 'NONE', #393, #234, #57 ) ;
#29 = CARTESIAN_POINT ( 'NONE',  ( 4.591314060538195500, 4.582601001431291900, 36.98456977376204700 ) ) ;
#30 =( GEOMETRIC_REPRESENTATION_CONTEXT ( 3 ) GLOBAL_UNCERTAINTY_ASSIGNED_CONTEXT ( ( #139 ) ) GLOBAL_UNIT_ASSIGNED_CONTEXT ( ( #249, #72, #160 ) ) REPRESENTATION_CONTEXT ( 'NONE', 'WORKASPACE' ) );
#31 = CARTESIAN_POINT ( 'NONE',  ( 4.591314060538195500, 4.582601001431410000, 3.077244706076152100 ) ) ;
#32 = FACE_OUTER_BOUND ( 'NONE', #298, .T. ) ;
#33 = FACE_OUTER_BOUND ( 'NONE', #295, .T. ) ;
#34 = EDGE_LOOP ( 'NONE', ( #265, #363, #70, #6 ) ) ;
#35 = CARTESIAN_POINT ( 'NONE',  ( 4.591314060538195500, 4.582601001431408200, 3.627244706076152300 ) ) ;
#36 = DIRECTION ( 'NONE',  ( 0.0000000000000000000, -3.491481338843133400E-015, 1.000000000000000000 ) ) ;
#37 =( GEOMETRIC_REPRESENTATION_CONTEXT ( 3 ) GLOBAL_UNCERTAINTY_ASSIGNED_CONTEXT ( ( #15 ) ) GLOBAL_UNIT_ASSIGNED_CONTEXT ( ( #192, #248, #126 ) ) REPRESENTATION_CONTEXT ( 'NONE', 'WORKASPACE' ) );
#38 = SURFACE_STYLE_USAGE ( .BOTH. , #131 ) ;
#39 = CIRCLE ( 'NONE', #342, 5.155000000000003800 ) ;
#40 = ORIENTED_EDGE ( 'NONE', *, *, #105, .T. ) ;
#41 = ADVANCED_FACE ( 'NONE', ( #223 ), #171, .T. ) ;
#42 = ADVANCED_FACE ( 'NONE', ( #64 ), #9, .F. ) ;
#43 = DIRECTION ( 'NONE',  ( 0.0000000000000000000, -3.491481338843133400E-015, 1.000000000000000000 ) ) ;
#44 = COLOUR_RGB ( '',0.7529411764705882200, 0.7529411764705882200, 0.7529411764705882200 ) ;
#45 = PRESENTATION_STYLE_ASSIGNMENT (( #119 ) ) ;
#46 = ORIENTED_EDGE ( 'NONE', *, *, #210, .T. ) ;
#47 = EDGE_CURVE ( 'NONE', #191, #200, #78, .T. ) ;
#48 = PRESENTATION_STYLE_ASSIGNMENT (( #158 ) ) ;
#49 = ORIENTED_EDGE ( 'NONE', *, *, #285, .F. ) ;
#50 = CARTESIAN_POINT ( 'NONE',  ( 4.591314060538195500, 0.5985485033625181900, 3.077244706076138300 ) ) ;
#51 = DIRECTION ( 'NONE',  ( 0.0000000000000000000, -3.491481338843133400E-015, 1.000000000000000000 ) ) ;
#52 = ORIENTED_EDGE ( 'NONE', *, *, #362, .T. ) ;
#53 = DIRECTION ( 'NONE',  ( 0.0000000000000000000, -1.000000000000000000, -3.416879573893707100E-015 ) ) ;
#54 = ORIENTED_EDGE ( 'NONE', *, *, #101, .T. ) ;
#55 = DIRECTION ( 'NONE',  ( 0.0000000000000000000, -3.491481338843133400E-015, 1.000000000000000000 ) ) ;
#56 = SURFACE_SIDE_STYLE ('',( #121 ) ) ;
#57 = DIRECTION ( 'NONE',  ( 0.0000000000000000000, -1.000000000000000000, -3.455624454137061800E-015 ) ) ;
#58 = AXIS2_PLACEMENT_3D ( 'NONE', #193, #382, #194 ) ;
#59 = ORIENTED_EDGE ( 'NONE', *, *, #274, .T. ) ;
#60 = ORIENTED_EDGE ( 'NONE', *, *, #145, .F. ) ;
#61 = CARTESIAN_POINT ( 'NONE',  ( 7.891314060538199700, 4.582601001431406500, 4.177244706076152200 ) ) ;
#62 = CIRCLE ( 'NONE', #115, 3.300000000000001600 ) ;
#63 = CARTESIAN_POINT ( 'NONE',  ( 4.591314060538196400, -0.5723989985685975500, 3.627244706076134100 ) ) ;
#64 = FACE_OUTER_BOUND ( 'NONE', #314, .T. ) ;
#65 = VERTEX_POINT ( 'NONE', #50 ) ;
#66 = DIRECTION ( 'NONE',  ( 0.0000000000000000000, -3.491481338843133400E-015, 1.000000000000000000 ) ) ;
#67 = AXIS2_PLACEMENT_3D ( 'NONE', #185, #155, #86 ) ;
#68 = DIRECTION ( 'NONE',  ( 0.0000000000000000000, 3.491481338843133400E-015, -1.000000000000000000 ) ) ;
#69 = DIRECTION ( 'NONE',  ( 0.0000000000000000000, -1.000000000000000000, -3.491481338843133400E-015 ) ) ;
#70 = ORIENTED_EDGE ( 'NONE', *, *, #174, .T. ) ;
#71 = EDGE_CURVE ( 'NONE', #216, #320, #227, .T. ) ;
#72 =( NAMED_UNIT ( * ) PLANE_ANGLE_UNIT ( ) SI_UNIT ( $, .RADIAN. ) );
#73 = DIRECTION ( 'NONE',  ( 0.0000000000000000000, -3.491481338843133400E-015, 1.000000000000000000 ) ) ;
#74 = CARTESIAN_POINT ( 'NONE',  ( 4.591314060538196400, 0.3176010014314016900, 3.627244706076137700 ) ) ;
#75 = FACE_OUTER_BOUND ( 'NONE', #204, .T. ) ;
#76 = MECHANICAL_DESIGN_GEOMETRIC_PRESENTATION_REPRESENTATION (  '', ( #3 ), #37 ) ;
#77 = APPLICATION_CONTEXT ( 'automotive_design' ) ;
#78 = CIRCLE ( 'NONE', #391, 3.300000000000003800 ) ;
#79 = EDGE_CURVE ( 'NONE', #305, #351, #141, .T. ) ;
#80 =( LENGTH_UNIT ( ) NAMED_UNIT ( * ) SI_UNIT ( .MILLI., .METRE. ) );
#81 = ORIENTED_EDGE ( 'NONE', *, *, #195, .F. ) ;
#82 = EDGE_CURVE ( 'NONE', #294, #65, #383, .T. ) ;
#83 = DIRECTION ( 'NONE',  ( 0.0000000000000000000, -1.000000000000000000, 0.0000000000000000000 ) ) ;
#84 = DIRECTION ( 'NONE',  ( 0.0000000000000000000, -1.000000000000000000, -3.491481338843133000E-015 ) ) ;
#85 = CIRCLE ( 'NONE', #271, 3.300000000000003800 ) ;
#86 = DIRECTION ( 'NONE',  ( 0.0000000000000000000, 1.000000000000000000, 3.491481338843133400E-015 ) ) ;
#87 = EDGE_CURVE ( 'NONE', #294, #216, #22, .T. ) ;
#88 = DIRECTION ( 'NONE',  ( 0.0000000000000000000, -1.000000000000000000, -3.416879573893709400E-015 ) ) ;
#89 = DIRECTION ( 'NONE',  ( 0.0000000000000000000, -3.491481338843133400E-015, 1.000000000000000000 ) ) ;
#90 = VERTEX_POINT ( 'NONE', #19 ) ;
#91 = ORIENTED_EDGE ( 'NONE', *, *, #79, .F. ) ;
#92 = DIRECTION ( 'NONE',  ( 0.0000000000000000000, 3.491481338843133400E-015, -1.000000000000000000 ) ) ;
#93 = MECHANICAL_DESIGN_GEOMETRIC_PRESENTATION_REPRESENTATION (  '', ( #261 ), #124 ) ;
#94 =( NAMED_UNIT ( * ) SI_UNIT ( $, .STERADIAN. ) SOLID_ANGLE_UNIT ( ) );
#95 = CIRCLE ( 'NONE', #297, 3.984052498068892500 ) ;
#96 = ORIENTED_EDGE ( 'NONE', *, *, #233, .F. ) ;
#97 = FILL_AREA_STYLE_COLOUR ( '', #1 ) ;
#98 = MANIFOLD_SOLID_BREP ( 'Defeature completata2', #219 ) ;
#99 = FILL_AREA_STYLE_COLOUR ( '', #44 ) ;
#100 = CYLINDRICAL_SURFACE ( 'NONE', #245, 3.300000000000002500 ) ;
#101 = EDGE_CURVE ( 'NONE', #200, #191, #85, .T. ) ;
#102 = APPLICATION_PROTOCOL_DEFINITION ( 'draft international standard', 'automotive_design', 1998, #254 ) ;
#103 = ADVANCED_FACE ( 'NONE', ( #33 ), #111, .T. ) ;
#104 = DIRECTION ( 'NONE',  ( 0.0000000000000000000, 0.0000000000000000000, 1.000000000000000000 ) ) ;
#105 = EDGE_CURVE ( 'NONE', #351, #305, #355, .T. ) ;
#106 = CIRCLE ( 'NONE', #159, 3.300000000000001600 ) ;
#107 = VERTEX_POINT ( 'NONE', #146 ) ;
#108 = DIRECTION ( 'NONE',  ( 0.0000000000000000000, 3.491481338843133400E-015, -1.000000000000000000 ) ) ;
#109 = PRESENTATION_LAYER_ASSIGNMENT (  '', '', ( #261 ) ) ;
#110 = AXIS2_PLACEMENT_3D ( 'NONE', #167, #104, #165 ) ;
#111 = TOROIDAL_SURFACE ( 'NONE', #289, 4.265000000000005000, 0.8900000000000001200 ) ;
#112 = ORIENTED_EDGE ( 'NONE', *, *, #230, .F. ) ;
#113 =( NAMED_UNIT ( * ) PLANE_ANGLE_UNIT ( ) SI_UNIT ( $, .RADIAN. ) );
#114 = DIRECTION ( 'NONE',  ( 0.0000000000000000000, -1.000000000000000000, 0.0000000000000000000 ) ) ;
#115 = AXIS2_PLACEMENT_3D ( 'NONE', #381, #43, #7 ) ;
#116 = CIRCLE ( 'NONE', #356, 3.375000000000004000 ) ;
#117 = CARTESIAN_POINT ( 'NONE',  ( 4.591314060538195500, 4.582601001431410000, 3.077244706076152100 ) ) ;
#118 = ORIENTED_EDGE ( 'NONE', *, *, #210, .F. ) ;
#119 = SURFACE_STYLE_USAGE ( .BOTH. , #56 ) ;
#120 = CIRCLE ( 'NONE', #267, 3.765000000000004600 ) ;
#121 = SURFACE_STYLE_FILL_AREA ( #303 ) ;
#122 = ORIENTED_EDGE ( 'NONE', *, *, #71, .F. ) ;
#123 = PLANE ( 'NONE',  #67 ) ;
#124 =( GEOMETRIC_REPRESENTATION_CONTEXT ( 3 ) GLOBAL_UNCERTAINTY_ASSIGNED_CONTEXT ( ( #224 ) ) GLOBAL_UNIT_ASSIGNED_CONTEXT ( ( #80, #113, #239 ) ) REPRESENTATION_CONTEXT ( 'NONE', 'WORKASPACE' ) );
#125 = CARTESIAN_POINT ( 'NONE',  ( 4.591314060538195500, 0.8176010014314036800, 3.627244706076152300 ) ) ;
#126 =( NAMED_UNIT ( * ) SI_UNIT ( $, .STERADIAN. ) SOLID_ANGLE_UNIT ( ) );
#127 = EDGE_CURVE ( 'NONE', #130, #294, #282, .T. ) ;
#128 = CARTESIAN_POINT ( 'NONE',  ( 4.591314060538195500, 4.582601001431408200, 3.627244706076152300 ) ) ;
#129 = PRESENTATION_STYLE_ASSIGNMENT (( #38 ) ) ;
#130 = VERTEX_POINT ( 'NONE', #206 ) ;
#131 = SURFACE_SIDE_STYLE ('',( #184 ) ) ;
#132 = DIRECTION ( 'NONE',  ( 0.0000000000000000000, 3.491481338843133400E-015, -1.000000000000000000 ) ) ;
#133 = ADVANCED_FACE ( 'NONE', ( #331 ), #268, .F. ) ;
#134 = AXIS2_PLACEMENT_3D ( 'NONE', #229, #25, #83 ) ;
#135 = PRODUCT_DEFINITION ( 'NON CONOSCIUTO', '', #284, #373 ) ;
#136 = ORIENTED_EDGE ( 'NONE', *, *, #258, .F. ) ;
#137 = AXIS2_PLACEMENT_3D ( 'NONE', #343, #68, #186 ) ;
#138 = CLOSED_SHELL ( 'NONE', ( #12, #42, #250, #166, #259, #133, #296, #386, #226 ) ) ;
#139 = UNCERTAINTY_MEASURE_WITH_UNIT (LENGTH_MEASURE( 1.000000000000000100E-005 ), #249, 'distance_accuracy_value', 'NONE');
#140 = PRODUCT ( '07_011_2', '07_011_2', '', ( #262 ) ) ;
#141 = CIRCLE ( 'NONE', #134, 0.8900000000000001200 ) ;
#142 = CARTESIAN_POINT ( 'NONE',  ( 4.591314060538196400, 9.147601001431413100, 3.627244706076168300 ) ) ;
#143 = CARTESIAN_POINT ( 'NONE',  ( 4.591314060538195500, 4.582601001431408200, 3.627244706076152300 ) ) ;
#144 = CARTESIAN_POINT ( 'NONE',  ( 4.591314060538195500, 4.582601001431406500, 4.177244706076155700 ) ) ;
#145 = EDGE_CURVE ( 'NONE', #200, #379, #323, .T. ) ;
#146 = CARTESIAN_POINT ( 'NONE',  ( 4.591314060538196400, 1.207601001431401800, 3.627244706076137700 ) ) ;
#147 = ORIENTED_EDGE ( 'NONE', *, *, #47, .F. ) ;
#148 = ORIENTED_EDGE ( 'NONE', *, *, #304, .T. ) ;
#149 = DIRECTION ( 'NONE',  ( 0.0000000000000000000, -1.000000000000000000, -3.416879573893707100E-015 ) ) ;
#150 = DIRECTION ( 'NONE',  ( 0.0000000000000000000, -1.000000000000000000, -3.483334573161662300E-015 ) ) ;
#151 = DIRECTION ( 'NONE',  ( 0.0000000000000000000, -3.491481338843133400E-015, 1.000000000000000000 ) ) ;
#152 = FACE_BOUND ( 'NONE', #315, .T. ) ;
#153 = AXIS2_PLACEMENT_3D ( 'NONE', #205, #273, #114 ) ;
#154 = CARTESIAN_POINT ( 'NONE',  ( 4.591314060538195500, 1.282601001431289400, 36.98456977376203300 ) ) ;
#155 = DIRECTION ( 'NONE',  ( 0.0000000000000000000, 3.491481338843133400E-015, -1.000000000000000000 ) ) ;
#156 = FACE_OUTER_BOUND ( 'NONE', #34, .T. ) ;
#157 = ORIENTED_EDGE ( 'NONE', *, *, #82, .T. ) ;
#158 = SURFACE_STYLE_USAGE ( .BOTH. , #354 ) ;
#159 = AXIS2_PLACEMENT_3D ( 'NONE', #213, #26, #88 ) ;
#160 =( NAMED_UNIT ( * ) SI_UNIT ( $, .STERADIAN. ) SOLID_ANGLE_UNIT ( ) );
#161 = CARTESIAN_POINT ( 'NONE',  ( 4.591314060538195500, 4.582601001431408200, 3.627244706076152300 ) ) ;
#162 = CIRCLE ( 'NONE', #207, 3.984052498068892500 ) ;
#163 = ORIENTED_EDGE ( 'NONE', *, *, #285, .T. ) ;
#164 = DIRECTION ( 'NONE',  ( 0.0000000000000000000, 1.000000000000000000, 3.469446951953610200E-015 ) ) ;
#165 = DIRECTION ( 'NONE',  ( 1.000000000000000000, 0.0000000000000000000, 0.0000000000000000000 ) ) ;
#166 = ADVANCED_FACE ( 'NONE', ( #156 ), #187, .F. ) ;
#167 = CARTESIAN_POINT ( 'NONE',  ( 0.0000000000000000000, 0.0000000000000000000, 0.0000000000000000000 ) ) ;
#168 = AXIS2_PLACEMENT_3D ( 'NONE', #190, #291, #321 ) ;
#169 = ORIENTED_EDGE ( 'NONE', *, *, #127, .F. ) ;
#170 = ORIENTED_EDGE ( 'NONE', *, *, #230, .T. ) ;
#171 = TOROIDAL_SURFACE ( 'NONE', #232, 4.265000000000005000, 0.8900000000000001200 ) ;
#172 = PRODUCT_RELATED_PRODUCT_CATEGORY ( 'part', '', ( #140 ) ) ;
#173 = DIRECTION ( 'NONE',  ( 1.000000000000000000, -1.224646799147353200E-016, -4.275831445896958600E-031 ) ) ;
#174 = EDGE_CURVE ( 'NONE', #320, #65, #319, .T. ) ;
#175 = DIRECTION ( 'NONE',  ( 0.0000000000000000000, -3.491481338843133400E-015, 1.000000000000000000 ) ) ;
#176 = CIRCLE ( 'NONE', #394, 0.8000000000000003800 ) ;
#177 = EDGE_LOOP ( 'NONE', ( #244, #157, #52, #122 ) ) ;
#178 = DIRECTION ( 'NONE',  ( 0.0000000000000000000, 3.491481338843133400E-015, -1.000000000000000000 ) ) ;
#179 = ORIENTED_EDGE ( 'NONE', *, *, #329, .F. ) ;
#180 = DIRECTION ( 'NONE',  ( 0.0000000000000000000, -3.491481338843133400E-015, 1.000000000000000000 ) ) ;
#181 = CARTESIAN_POINT ( 'NONE',  ( 4.591314060538195500, 7.882601001431295300, 36.98456977376206100 ) ) ;
#182 = UNCERTAINTY_MEASURE_WITH_UNIT (LENGTH_MEASURE( 1.000000000000000100E-005 ), #352, 'distance_accuracy_value', 'NONE');
#183 = CARTESIAN_POINT ( 'NONE',  ( 4.591314060538195500, 7.882601001431409800, 4.177244706076167300 ) ) ;
#184 = SURFACE_STYLE_FILL_AREA ( #218 ) ;
#185 = CARTESIAN_POINT ( 'NONE',  ( 4.591314060538195500, 4.582601001431399400, 6.177244706076150400 ) ) ;
#186 = DIRECTION ( 'NONE',  ( 0.0000000000000000000, 1.000000000000000000, 3.533384383657897400E-015 ) ) ;
#187 = TOROIDAL_SURFACE ( 'NONE', #385, 4.565000000000004800, 0.8000000000000001600 ) ;
#188 = AXIS2_PLACEMENT_3D ( 'NONE', #117, #175, #150 ) ;
#189 = DIRECTION ( 'NONE',  ( 0.0000000000000000000, 1.000000000000000000, 0.0000000000000000000 ) ) ;
#190 = CARTESIAN_POINT ( 'NONE',  ( 4.591314060538196400, 0.3176010014314016900, 3.627244706076137700 ) ) ;
#191 = VERTEX_POINT ( 'NONE', #238 ) ;
#192 =( LENGTH_UNIT ( ) NAMED_UNIT ( * ) SI_UNIT ( .MILLI., .METRE. ) );
#193 = CARTESIAN_POINT ( 'NONE',  ( 4.591314060538195500, 4.582601001431410000, 3.077244706076152100 ) ) ;
#194 = DIRECTION ( 'NONE',  ( 0.0000000000000000000, -1.000000000000000000, -3.483334573161662300E-015 ) ) ;
#195 = EDGE_CURVE ( 'NONE', #379, #367, #106, .T. ) ;
#196 = SURFACE_STYLE_FILL_AREA ( #317 ) ;
#197 = ADVANCED_FACE ( 'NONE', ( #263 ), #240, .T. ) ;
#198 = AXIS2_PLACEMENT_3D ( 'NONE', #366, #55, #335 ) ;
#199 = VECTOR ( 'NONE', #89, 1000.000000000000000 ) ;
#200 = VERTEX_POINT ( 'NONE', #183 ) ;
#201 = DIRECTION ( 'NONE',  ( 0.0000000000000000000, -3.491481338843133400E-015, 1.000000000000000000 ) ) ;
#202 = DIRECTION ( 'NONE',  ( 0.0000000000000000000, 1.000000000000000000, 0.0000000000000000000 ) ) ;
#203 = ORIENTED_EDGE ( 'NONE', *, *, #195, .T. ) ;
#204 = EDGE_LOOP ( 'NONE', ( #163, #46 ) ) ;
#205 = CARTESIAN_POINT ( 'NONE',  ( 4.591314060538195500, 8.847601001431414100, 3.627244706076167000 ) ) ;
#206 = CARTESIAN_POINT ( 'NONE',  ( 4.591314060538195500, 0.5985485033625122000, 4.177244706076142400 ) ) ;
#207 = AXIS2_PLACEMENT_3D ( 'NONE', #371, #151, #247 ) ;
#208 = DIRECTION ( 'NONE',  ( -1.000000000000000000, -0.0000000000000000000, 0.0000000000000000000 ) ) ;
#209 = ADVANCED_BREP_SHAPE_REPRESENTATION ( '07_011_2', ( #348, #98, #110 ), #272 ) ;
#210 = EDGE_CURVE ( 'NONE', #90, #130, #162, .T. ) ;
#211 = DIRECTION ( 'NONE',  ( 0.0000000000000000000, 0.0000000000000000000, 1.000000000000000000 ) ) ;
#212 = ORIENTED_EDGE ( 'NONE', *, *, #362, .F. ) ;
#213 = CARTESIAN_POINT ( 'NONE',  ( 4.591314060538195500, 4.582601001431399400, 6.177244706076150400 ) ) ;
#214 = DIRECTION ( 'NONE',  ( 0.0000000000000000000, -3.491481338843133400E-015, 1.000000000000000000 ) ) ;
#215 = EDGE_CURVE ( 'NONE', #220, #305, #255, .T. ) ;
#216 = VERTEX_POINT ( 'NONE', #281 ) ;
#217 = DIRECTION ( 'NONE',  ( 0.0000000000000000000, 1.000000000000000000, 3.469446951953610200E-015 ) ) ;
#218 = FILL_AREA_STYLE ('',( #97 ) ) ;
#219 = CLOSED_SHELL ( 'NONE', ( #41, #103, #253, #197 ) ) ;
#220 = VERTEX_POINT ( 'NONE', #63 ) ;
#221 = AXIS2_PLACEMENT_3D ( 'NONE', #161, #132, #164 ) ;
#222 =( NAMED_UNIT ( * ) PLANE_ANGLE_UNIT ( ) SI_UNIT ( $, .RADIAN. ) );
#223 = FACE_OUTER_BOUND ( 'NONE', #246, .T. ) ;
#224 = UNCERTAINTY_MEASURE_WITH_UNIT (LENGTH_MEASURE( 1.000000000000000100E-005 ), #80, 'distance_accuracy_value', 'NONE');
#225 = AXIS2_PLACEMENT_3D ( 'NONE', #142, #173, #202 ) ;
#226 = ADVANCED_FACE ( 'NONE', ( #378 ), #123, .F. ) ;
#227 = CIRCLE ( 'NONE', #225, 0.8000000000000003800 ) ;
#228 = ORIENTED_EDGE ( 'NONE', *, *, #353, .T. ) ;
#229 = CARTESIAN_POINT ( 'NONE',  ( 4.591314060538195500, 8.847601001431414100, 3.627244706076167000 ) ) ;
#230 = EDGE_CURVE ( 'NONE', #90, #216, #176, .T. ) ;
#231 = CARTESIAN_POINT ( 'NONE',  ( 4.591314060538195500, 4.582601001431406500, 4.177244706076155700 ) ) ;
#232 = AXIS2_PLACEMENT_3D ( 'NONE', #264, #108, #389 ) ;
#233 = EDGE_CURVE ( 'NONE', #107, #351, #116, .T. ) ;
#234 = DIRECTION ( 'NONE',  ( 0.0000000000000000000, -3.491481338843133400E-015, 1.000000000000000000 ) ) ;
#235 = VECTOR ( 'NONE', #395, 1000.000000000000000 ) ;
#236 = ORIENTED_EDGE ( 'NONE', *, *, #365, .T. ) ;
#237 = DIRECTION ( 'NONE',  ( 0.0000000000000000000, 1.000000000000000000, 3.491481338843133000E-015 ) ) ;
#238 = CARTESIAN_POINT ( 'NONE',  ( 4.591314060538195500, 1.282601001431402700, 4.177244706076145100 ) ) ;
#239 =( NAMED_UNIT ( * ) SI_UNIT ( $, .STERADIAN. ) SOLID_ANGLE_UNIT ( ) );
#240 = TOROIDAL_SURFACE ( 'NONE', #280, 4.265000000000005000, 0.8900000000000001200 ) ;
#241 = DIRECTION ( 'NONE',  ( 0.0000000000000000000, -1.000000000000000000, -3.483334573161661500E-015 ) ) ;
#242 = ORIENTED_EDGE ( 'NONE', *, *, #304, .F. ) ;
#243 = DIRECTION ( 'NONE',  ( 0.0000000000000000000, -1.000000000000000000, -4.205390244792256100E-015 ) ) ;
#244 = ORIENTED_EDGE ( 'NONE', *, *, #87, .F. ) ;
#245 = AXIS2_PLACEMENT_3D ( 'NONE', #29, #36, #243 ) ;
#246 = EDGE_LOOP ( 'NONE', ( #179, #339, #16, #96 ) ) ;
#247 = DIRECTION ( 'NONE',  ( 0.0000000000000000000, -1.000000000000000000, -3.483334573161661500E-015 ) ) ;
#248 =( NAMED_UNIT ( * ) PLANE_ANGLE_UNIT ( ) SI_UNIT ( $, .RADIAN. ) );
#249 =( LENGTH_UNIT ( ) NAMED_UNIT ( * ) SI_UNIT ( .MILLI., .METRE. ) );
#250 = ADVANCED_FACE ( 'NONE', ( #32 ), #100, .T. ) ;
#251 = FACE_OUTER_BOUND ( 'NONE', #360, .T. ) ;
#252 = DIRECTION ( 'NONE',  ( 1.000000000000000000, 1.779758311459931200E-016, 6.213992932113315000E-031 ) ) ;
#253 = ADVANCED_FACE ( 'NONE', ( #344 ), #288, .T. ) ;
#254 = APPLICATION_CONTEXT ( 'automotive_design' ) ;
#255 = CIRCLE ( 'NONE', #137, 5.155000000000003800 ) ;
#256 = ORIENTED_EDGE ( 'NONE', *, *, #174, .F. ) ;
#257 = EDGE_LOOP ( 'NONE', ( #212, #256 ) ) ;
#258 = EDGE_CURVE ( 'NONE', #191, #367, #327, .T. ) ;
#259 = ADVANCED_FACE ( 'NONE', ( #20 ), #309, .F. ) ;
#260 = PRODUCT_DEFINITION_SHAPE ( 'NONE', 'NONE',  #135 ) ;
#261 = STYLED_ITEM ( 'NONE', ( #45 ), #98 ) ;
#262 = PRODUCT_CONTEXT ( 'NONE', #77, 'mechanical' ) ;
#263 = FACE_OUTER_BOUND ( 'NONE', #18, .T. ) ;
#264 = CARTESIAN_POINT ( 'NONE',  ( 4.591314060538195500, 4.582601001431408200, 3.627244706076152300 ) ) ;
#265 = ORIENTED_EDGE ( 'NONE', *, *, #353, .F. ) ;
#266 = CARTESIAN_POINT ( 'NONE',  ( 4.591314060538195500, 4.582601001431408200, 3.627244706076152300 ) ) ;
#267 = AXIS2_PLACEMENT_3D ( 'NONE', #128, #73, #318 ) ;
#268 = TOROIDAL_SURFACE ( 'NONE', #198, 4.565000000000004800, 0.8000000000000001600 ) ;
#269 = ORIENTED_EDGE ( 'NONE', *, *, #145, .T. ) ;
#270 = FILL_AREA_STYLE_COLOUR ( '', #301 ) ;
#271 = AXIS2_PLACEMENT_3D ( 'NONE', #144, #276, #149 ) ;
#272 =( GEOMETRIC_REPRESENTATION_CONTEXT ( 3 ) GLOBAL_UNCERTAINTY_ASSIGNED_CONTEXT ( ( #182 ) ) GLOBAL_UNIT_ASSIGNED_CONTEXT ( ( #352, #222, #94 ) ) REPRESENTATION_CONTEXT ( 'NONE', 'WORKASPACE' ) );
#273 = DIRECTION ( 'NONE',  ( -1.000000000000000000, -5.551115123125780200E-017, -1.938161486216356400E-031 ) ) ;
#274 = EDGE_CURVE ( 'NONE', #305, #220, #39, .T. ) ;
#275 = ORIENTED_EDGE ( 'NONE', *, *, #233, .T. ) ;
#276 = DIRECTION ( 'NONE',  ( 0.0000000000000000000, -3.491481338843133400E-015, 1.000000000000000000 ) ) ;
#277 = DIRECTION ( 'NONE',  ( 0.0000000000000000000, 3.491481338843133400E-015, -1.000000000000000000 ) ) ;
#278 = DIRECTION ( 'NONE',  ( 0.0000000000000000000, 1.000000000000000000, 0.0000000000000000000 ) ) ;
#279 = FACE_OUTER_BOUND ( 'NONE', #311, .T. ) ;
#280 = AXIS2_PLACEMENT_3D ( 'NONE', #24, #368, #347 ) ;
#281 = CARTESIAN_POINT ( 'NONE',  ( 4.591314060538196400, 8.347601001431412400, 3.627244706076152300 ) ) ;
#282 = CIRCLE ( 'NONE', #322, 0.7999999999999999300 ) ;
#283 = ORIENTED_EDGE ( 'NONE', *, *, #47, .T. ) ;
#284 = PRODUCT_DEFINITION_FORMATION_WITH_SPECIFIED_SOURCE ( 'TUTTO', '', #140, .NOT_KNOWN. ) ;
#285 = EDGE_CURVE ( 'NONE', #130, #90, #95, .T. ) ;
#286 = CARTESIAN_POINT ( 'NONE',  ( 4.591314060538195500, 9.737601001431412900, 3.627244706076170600 ) ) ;
#287 = CARTESIAN_POINT ( 'NONE',  ( 4.591314060538195500, 4.582601001431291900, 36.98456977376204700 ) ) ;
#288 = TOROIDAL_SURFACE ( 'NONE', #307, 4.265000000000005000, 0.8900000000000001200 ) ;
#289 = AXIS2_PLACEMENT_3D ( 'NONE', #364, #178, #237 ) ;
#290 = ORIENTED_EDGE ( 'NONE', *, *, #127, .T. ) ;
#291 = DIRECTION ( 'NONE',  ( 1.000000000000000000, 1.779758311459931200E-016, 6.213992932113315000E-031 ) ) ;
#292 = APPLICATION_PROTOCOL_DEFINITION ( 'draft international standard', 'automotive_design', 1998, #77 ) ;
#293 = SHAPE_DEFINITION_REPRESENTATION ( #260, #209 ) ;
#294 = VERTEX_POINT ( 'NONE', #125 ) ;
#295 = EDGE_LOOP ( 'NONE', ( #91, #59, #384, #242 ) ) ;
#296 = ADVANCED_FACE ( 'NONE', ( #152, #75 ), #338, .F. ) ;
#297 = AXIS2_PLACEMENT_3D ( 'NONE', #369, #214, #241 ) ;
#298 = EDGE_LOOP ( 'NONE', ( #283, #269, #306, #136 ) ) ;
#299 = CARTESIAN_POINT ( 'NONE',  ( 4.591314060538195500, 4.582601001431408200, 3.627244706076152300 ) ) ;
#300 = CYLINDRICAL_SURFACE ( 'NONE', #387, 3.300000000000002500 ) ;
#301 = COLOUR_RGB ( '',0.2509803921568627400, 0.2509803921568627400, 0.2509803921568627400 ) ;
#302 = ORIENTED_EDGE ( 'NONE', *, *, #274, .F. ) ;
#303 = FILL_AREA_STYLE ('',( #270 ) ) ;
#304 = EDGE_CURVE ( 'NONE', #351, #107, #390, .T. ) ;
#305 = VERTEX_POINT ( 'NONE', #286 ) ;
#306 = ORIENTED_EDGE ( 'NONE', *, *, #365, .F. ) ;
#307 = AXIS2_PLACEMENT_3D ( 'NONE', #35, #312, #27 ) ;
#308 = CARTESIAN_POINT ( 'NONE',  ( 4.591314060538195500, 0.01760100143140350800, 3.627244706076136400 ) ) ;
#309 = PLANE ( 'NONE',  #325 ) ;
#310 = CIRCLE ( 'NONE', #58, 3.984052498068891600 ) ;
#311 = EDGE_LOOP ( 'NONE', ( #60, #54, #23, #81 ) ) ;
#312 = DIRECTION ( 'NONE',  ( 0.0000000000000000000, 3.491481338843133400E-015, -1.000000000000000000 ) ) ;
#313 = EDGE_CURVE ( 'NONE', #107, #220, #350, .T. ) ;
#314 = EDGE_LOOP ( 'NONE', ( #170, #228, #169, #118 ) ) ;
#315 = EDGE_LOOP ( 'NONE', ( #147, #332 ) ) ;
#316 = DIRECTION ( 'NONE',  ( 0.0000000000000000000, -3.491481338843133400E-015, 1.000000000000000000 ) ) ;
#317 = FILL_AREA_STYLE ('',( #99 ) ) ;
#318 = DIRECTION ( 'NONE',  ( 0.0000000000000000000, -1.000000000000000000, -3.455624454137061800E-015 ) ) ;
#319 = CIRCLE ( 'NONE', #188, 3.984052498068891600 ) ;
#320 = VERTEX_POINT ( 'NONE', #380 ) ;
#321 = DIRECTION ( 'NONE',  ( 0.0000000000000000000, 1.000000000000000000, 0.0000000000000000000 ) ) ;
#322 = AXIS2_PLACEMENT_3D ( 'NONE', #308, #208, #336 ) ;
#323 = LINE ( 'NONE', #181, #235 ) ;
#324 = ORIENTED_EDGE ( 'NONE', *, *, #87, .T. ) ;
#325 = AXIS2_PLACEMENT_3D ( 'NONE', #31, #66, #69 ) ;
#326 = DIRECTION ( 'NONE',  ( 0.0000000000000000000, -1.000000000000000000, -3.491481338843133000E-015 ) ) ;
#327 = LINE ( 'NONE', #154, #199 ) ;
#328 = ORIENTED_EDGE ( 'NONE', *, *, #313, .F. ) ;
#329 = EDGE_CURVE ( 'NONE', #220, #107, #337, .T. ) ;
#330 = CARTESIAN_POINT ( 'NONE',  ( 4.591314060538195500, 0.01760100143140350800, 3.627244706076136400 ) ) ;
#331 = FACE_OUTER_BOUND ( 'NONE', #177, .T. ) ;
#332 = ORIENTED_EDGE ( 'NONE', *, *, #101, .F. ) ;
#333 = DIRECTION ( 'NONE',  ( -1.000000000000000000, -0.0000000000000000000, 0.0000000000000000000 ) ) ;
#334 = AXIS2_PLACEMENT_3D ( 'NONE', #299, #359, #326 ) ;
#335 = DIRECTION ( 'NONE',  ( 0.0000000000000000000, -1.000000000000000000, -3.491481338843133000E-015 ) ) ;
#336 = DIRECTION ( 'NONE',  ( 0.0000000000000000000, 0.0000000000000000000, 1.000000000000000000 ) ) ;
#337 = CIRCLE ( 'NONE', #17, 0.8900000000000001200 ) ;
#338 = PLANE ( 'NONE',  #376 ) ;
#339 = ORIENTED_EDGE ( 'NONE', *, *, #215, .T. ) ;
#340 = DIRECTION ( 'NONE',  ( 0.0000000000000000000, 1.000000000000000000, 3.491481338843133400E-015 ) ) ;
#341 = CARTESIAN_POINT ( 'NONE',  ( 4.591314060538195500, 4.582601001431408200, 3.627244706076152300 ) ) ;
#342 = AXIS2_PLACEMENT_3D ( 'NONE', #375, #372, #4 ) ;
#343 = CARTESIAN_POINT ( 'NONE',  ( 4.591314060538195500, 4.582601001431408200, 3.627244706076152300 ) ) ;
#344 = FACE_OUTER_BOUND ( 'NONE', #345, .T. ) ;
#345 = EDGE_LOOP ( 'NONE', ( #302, #392, #148, #346 ) ) ;
#346 = ORIENTED_EDGE ( 'NONE', *, *, #313, .T. ) ;
#347 = DIRECTION ( 'NONE',  ( 0.0000000000000000000, 1.000000000000000000, 3.491481338843133000E-015 ) ) ;
#348 = MANIFOLD_SOLID_BREP ( 'Defeature completata1', #138 ) ;
#349 = CARTESIAN_POINT ( 'NONE',  ( 4.591314060538195500, 1.282601001431398000, 6.177244706076139700 ) ) ;
#350 = CIRCLE ( 'NONE', #168, 0.8900000000000001200 ) ;
#351 = VERTEX_POINT ( 'NONE', #13 ) ;
#352 =( LENGTH_UNIT ( ) NAMED_UNIT ( * ) SI_UNIT ( .MILLI., .METRE. ) );
#353 = EDGE_CURVE ( 'NONE', #216, #294, #120, .T. ) ;
#354 = SURFACE_SIDE_STYLE ('',( #196 ) ) ;
#355 = CIRCLE ( 'NONE', #153, 0.8900000000000001200 ) ;
#356 = AXIS2_PLACEMENT_3D ( 'NONE', #341, #92, #217 ) ;
#357 = PRESENTATION_LAYER_ASSIGNMENT (  '', '', ( #14 ) ) ;
#358 = DIRECTION ( 'NONE',  ( 0.0000000000000000000, -1.000000000000000000, -3.491481338843133000E-015 ) ) ;
#359 = DIRECTION ( 'NONE',  ( 0.0000000000000000000, -3.491481338843133400E-015, 1.000000000000000000 ) ) ;
#360 = EDGE_LOOP ( 'NONE', ( #290, #324, #112, #49 ) ) ;
#361 = TOROIDAL_SURFACE ( 'NONE', #370, 4.565000000000004800, 0.8000000000000001600 ) ;
#362 = EDGE_CURVE ( 'NONE', #65, #320, #310, .T. ) ;
#363 = ORIENTED_EDGE ( 'NONE', *, *, #71, .T. ) ;
#364 = CARTESIAN_POINT ( 'NONE',  ( 4.591314060538195500, 4.582601001431408200, 3.627244706076152300 ) ) ;
#365 = EDGE_CURVE ( 'NONE', #367, #379, #62, .T. ) ;
#366 = CARTESIAN_POINT ( 'NONE',  ( 4.591314060538195500, 4.582601001431408200, 3.627244706076152300 ) ) ;
#367 = VERTEX_POINT ( 'NONE', #349 ) ;
#368 = DIRECTION ( 'NONE',  ( 0.0000000000000000000, 3.491481338843133400E-015, -1.000000000000000000 ) ) ;
#369 = CARTESIAN_POINT ( 'NONE',  ( 4.591314060538195500, 4.582601001431406500, 4.177244706076155700 ) ) ;
#370 = AXIS2_PLACEMENT_3D ( 'NONE', #266, #201, #358 ) ;
#371 = CARTESIAN_POINT ( 'NONE',  ( 4.591314060538195500, 4.582601001431406500, 4.177244706076155700 ) ) ;
#372 = DIRECTION ( 'NONE',  ( 0.0000000000000000000, 3.491481338843133400E-015, -1.000000000000000000 ) ) ;
#373 = PRODUCT_DEFINITION_CONTEXT ( 'detailed design', #254, 'design' ) ;
#374 = CARTESIAN_POINT ( 'NONE',  ( 4.591314060538196400, 9.147601001431413100, 3.627244706076168300 ) ) ;
#375 = CARTESIAN_POINT ( 'NONE',  ( 4.591314060538195500, 4.582601001431408200, 3.627244706076152300 ) ) ;
#376 = AXIS2_PLACEMENT_3D ( 'NONE', #61, #277, #340 ) ;
#377 = MECHANICAL_DESIGN_GEOMETRIC_PRESENTATION_REPRESENTATION (  '', ( #14 ), #30 ) ;
#378 = FACE_OUTER_BOUND ( 'NONE', #5, .T. ) ;
#379 = VERTEX_POINT ( 'NONE', #8 ) ;
#380 = CARTESIAN_POINT ( 'NONE',  ( 4.591314060538197200, 8.566653499500303000, 3.077244706076166300 ) ) ;
#381 = CARTESIAN_POINT ( 'NONE',  ( 4.591314060538195500, 4.582601001431399400, 6.177244706076150400 ) ) ;
#382 = DIRECTION ( 'NONE',  ( 0.0000000000000000000, -3.491481338843133400E-015, 1.000000000000000000 ) ) ;
#383 = CIRCLE ( 'NONE', #11, 0.7999999999999999300 ) ;
#384 = ORIENTED_EDGE ( 'NONE', *, *, #329, .T. ) ;
#385 = AXIS2_PLACEMENT_3D ( 'NONE', #143, #180, #84 ) ;
#386 = ADVANCED_FACE ( 'NONE', ( #279 ), #300, .T. ) ;
#387 = AXIS2_PLACEMENT_3D ( 'NONE', #287, #316, #10 ) ;
#388 = ORIENTED_EDGE ( 'NONE', *, *, #215, .F. ) ;
#389 = DIRECTION ( 'NONE',  ( 0.0000000000000000000, 1.000000000000000000, 3.491481338843133000E-015 ) ) ;
#390 = CIRCLE ( 'NONE', #221, 3.375000000000004000 ) ;
#391 = AXIS2_PLACEMENT_3D ( 'NONE', #231, #51, #53 ) ;
#392 = ORIENTED_EDGE ( 'NONE', *, *, #105, .F. ) ;
#393 = CARTESIAN_POINT ( 'NONE',  ( 4.591314060538195500, 4.582601001431408200, 3.627244706076152300 ) ) ;
#394 = AXIS2_PLACEMENT_3D ( 'NONE', #374, #2, #278 ) ;
#395 = DIRECTION ( 'NONE',  ( 0.0000000000000000000, -3.491481338843133400E-015, 1.000000000000000000 ) ) ;
ENDSEC;
END-ISO-10303-21;
