ISO-10303-21;
HEADER;
FILE_DESCRIPTION(( '01_080_2.STEP' ), '1');
FILE_NAME( '01_080_2.STEP', '2019-03-04T12:04:31',( 'Sopra'),('sopra-pneumatic.com'), 'SwSTEP 2.0','SolidWorks 2009','' );
FILE_SCHEMA (( 'AUTOMOTIVE_DESIGN' ));
ENDSEC;

DATA;
#1 = CARTESIAN_POINT ( 'NONE',  ( -334.9999999999999400, 4.898587196589412800E-016, -4.000000000000000000 ) ) ;
#2 = CARTESIAN_POINT ( 'NONE',  ( -335.9999999999999400, 3.673940397442060400E-016, -3.000000000000000400 ) ) ;
#3 = CIRCLE ( 'NONE', #232, 4.799999999999860400 ) ;
#4 = ORIENTED_EDGE ( 'NONE', *, *, #262, .F. ) ;
#5 = ADVANCED_BREP_SHAPE_REPRESENTATION ( '01_080_2', ( #189, #281 ), #121 ) ;
#6 =( LENGTH_UNIT ( ) NAMED_UNIT ( * ) SI_UNIT ( .MILLI., .METRE. ) );
#7 = EDGE_LOOP ( 'NONE', ( #4, #230, #24, #252 ) ) ;
#8 = CIRCLE ( 'NONE', #23, 5.000000000000000000 ) ;
#9 = VERTEX_POINT ( 'NONE', #275 ) ;
#10 =( LENGTH_UNIT ( ) NAMED_UNIT ( * ) SI_UNIT ( .MILLI., .METRE. ) );
#11 = EDGE_CURVE ( 'NONE', #60, #293, #344, .T. ) ;
#12 = CARTESIAN_POINT ( 'NONE',  ( -335.9999999999999400, 0.0000000000000000000, 0.0000000000000000000 ) ) ;
#13 = CARTESIAN_POINT ( 'NONE',  ( 350.0000000000000000, 6.123233995736766300E-016, -5.000000000000000000 ) ) ;
#14 = AXIS2_PLACEMENT_3D ( 'NONE', #322, #136, #349 ) ;
#15 = VERTEX_POINT ( 'NONE', #124 ) ;
#16 = CARTESIAN_POINT ( 'NONE',  ( -334.9999999999999400, 6.123233995736766300E-016, -5.000000000000000000 ) ) ;
#17 = DIRECTION ( 'NONE',  ( -1.000000000000000000, 0.0000000000000000000, 0.0000000000000000000 ) ) ;
#18 = ORIENTED_EDGE ( 'NONE', *, *, #366, .F. ) ;
#19 = AXIS2_PLACEMENT_3D ( 'NONE', #338, #125, #127 ) ;
#20 =( NAMED_UNIT ( * ) PLANE_ANGLE_UNIT ( ) SI_UNIT ( $, .RADIAN. ) );
#21 = VECTOR ( 'NONE', #364, 1000.000000000000100 ) ;
#22 = AXIS2_PLACEMENT_3D ( 'NONE', #44, #363, #98 ) ;
#23 = AXIS2_PLACEMENT_3D ( 'NONE', #241, #47, #211 ) ;
#24 = ORIENTED_EDGE ( 'NONE', *, *, #104, .F. ) ;
#25 = EDGE_CURVE ( 'NONE', #293, #60, #8, .T. ) ;
#26 = CARTESIAN_POINT ( 'NONE',  ( -335.9999999999999400, 0.0000000000000000000, 0.0000000000000000000 ) ) ;
#27 = EDGE_CURVE ( 'NONE', #259, #130, #155, .T. ) ;
#28 = LINE ( 'NONE', #108, #282 ) ;
#29 = DIRECTION ( 'NONE',  ( 0.0000000000000000000, -1.224646799147353500E-016, 1.000000000000000000 ) ) ;
#30 = ORIENTED_EDGE ( 'NONE', *, *, #82, .T. ) ;
#31 = AXIS2_PLACEMENT_3D ( 'NONE', #288, #111, #323 ) ;
#32 = CARTESIAN_POINT ( 'NONE',  ( -336.4606079858305100, 0.0000000000000000000, 0.0000000000000000000 ) ) ;
#33 =( NAMED_UNIT ( * ) SI_UNIT ( $, .STERADIAN. ) SOLID_ANGLE_UNIT ( ) );
#34 = DIRECTION ( 'NONE',  ( 1.000000000000000000, 0.0000000000000000000, 0.0000000000000000000 ) ) ;
#35 = ORIENTED_EDGE ( 'NONE', *, *, #25, .T. ) ;
#36 = EDGE_CURVE ( 'NONE', #238, #107, #85, .T. ) ;
#37 = UNCERTAINTY_MEASURE_WITH_UNIT (LENGTH_MEASURE( 1.000000000000000100E-005 ), #182, 'distance_accuracy_value', 'NONE');
#38 = ADVANCED_FACE ( 'NONE', ( #312 ), #381, .T. ) ;
#39 = DIRECTION ( 'NONE',  ( -0.0003265890283210559600, 0.3942939479548728300, 0.9189843175733558600 ) ) ;
#40 = AXIS2_PLACEMENT_3D ( 'NONE', #256, #86, #165 ) ;
#41 = CARTESIAN_POINT ( 'NONE',  ( -334.9999999999999400, 0.0000000000000000000, 5.000000000000000000 ) ) ;
#42 = EDGE_LOOP ( 'NONE', ( #184, #279, #30, #126 ) ) ;
#43 = DIRECTION ( 'NONE',  ( 1.000000000000000000, 0.0000000000000000000, 0.0000000000000000000 ) ) ;
#44 = CARTESIAN_POINT ( 'NONE',  ( 350.0000000000000000, 0.0000000000000000000, 0.0000000000000000000 ) ) ;
#45 = PRODUCT_DEFINITION_CONTEXT ( 'detailed design', #67, 'design' ) ;
#46 = EDGE_CURVE ( 'NONE', #342, #304, #77, .T. ) ;
#47 = DIRECTION ( 'NONE',  ( -1.000000000000000000, 0.0000000000000000000, 0.0000000000000000000 ) ) ;
#48 = VERTEX_POINT ( 'NONE', #41 ) ;
#49 = CARTESIAN_POINT ( 'NONE',  ( 350.0000000000000000, 5.878304635907124600E-016, -4.799999999999860400 ) ) ;
#50 = CARTESIAN_POINT ( 'NONE',  ( -335.9999999999999400, 0.0000000000000000000, 0.0000000000000000000 ) ) ;
#51 = CYLINDRICAL_SURFACE ( 'NONE', #295, 5.000000000000000000 ) ;
#52 = AXIS2_PLACEMENT_3D ( 'NONE', #141, #356, #168 ) ;
#53 = ORIENTED_EDGE ( 'NONE', *, *, #61, .T. ) ;
#54 = MECHANICAL_DESIGN_GEOMETRIC_PRESENTATION_REPRESENTATION (  '', ( #123 ), #138 ) ;
#55 = FACE_OUTER_BOUND ( 'NONE', #103, .T. ) ;
#56 = DIRECTION ( 'NONE',  ( -0.0003265890283210559600, 0.3942939479548728300, 0.9189843175733558600 ) ) ;
#57 = PRESENTATION_STYLE_ASSIGNMENT (( #330 ) ) ;
#58 = ADVANCED_FACE ( 'NONE', ( #297 ), #223, .T. ) ;
#59 = CARTESIAN_POINT ( 'NONE',  ( -345.9969220840984000, 9.189843626876381700, -3.942938579282362400 ) ) ;
#60 = VERTEX_POINT ( 'NONE', #118 ) ;
#61 = EDGE_CURVE ( 'NONE', #194, #9, #250, .T. ) ;
#62 = CARTESIAN_POINT ( 'NONE',  ( -335.9999999999999400, 0.0000000000000000000, 4.000000000000000000 ) ) ;
#63 = DIRECTION ( 'NONE',  ( 0.0000000000000000000, 0.0000000000000000000, 1.000000000000000000 ) ) ;
#64 = ORIENTED_EDGE ( 'NONE', *, *, #11, .T. ) ;
#65 = AXIS2_PLACEMENT_3D ( 'NONE', #367, #306, #247 ) ;
#66 = APPLICATION_PROTOCOL_DEFINITION ( 'draft international standard', 'automotive_design', 1998, #92 ) ;
#67 = APPLICATION_CONTEXT ( 'automotive_design' ) ;
#68 = UNCERTAINTY_MEASURE_WITH_UNIT (LENGTH_MEASURE( 1.000000000000000100E-005 ), #158, 'distance_accuracy_value', 'NONE');
#69 = ADVANCED_FACE ( 'NONE', ( #193 ), #81, .T. ) ;
#70 = LINE ( 'NONE', #177, #21 ) ;
#71 = CONICAL_SURFACE ( 'NONE', #271, 4.799999999999860400, 0.7853981633974375100 ) ;
#72 = AXIS2_PLACEMENT_3D ( 'NONE', #253, #83, #249 ) ;
#73 = DIRECTION ( 'NONE',  ( 1.000000000000000000, 0.0000000000000000000, 0.0000000000000000000 ) ) ;
#74 = TOROIDAL_SURFACE ( 'NONE', #100, 4.000000000000000000, 1.000000000000000000 ) ;
#75 = CLOSED_SHELL ( 'NONE', ( #58, #69, #162, #188, #296, #221, #202, #348, #260, #38, #316, #198 ) ) ;
#76 = DIRECTION ( 'NONE',  ( -1.000000000000000000, -0.0000000000000000000, -0.0000000000000000000 ) ) ;
#77 = CIRCLE ( 'NONE', #240, 3.000000000000000400 ) ;
#78 = CARTESIAN_POINT ( 'NONE',  ( -346.0000000000000000, -2.778373946112511900E-015, -6.475990398232753200E-015 ) ) ;
#79 = CARTESIAN_POINT ( 'NONE',  ( 350.0000000000000000, 6.000769315821945000E-016, -4.799999999999860400 ) ) ;
#80 = SURFACE_STYLE_FILL_AREA ( #314 ) ;
#81 = CONICAL_SURFACE ( 'NONE', #22, 4.799999999999860400, 0.7853981633974375100 ) ;
#82 = EDGE_CURVE ( 'NONE', #9, #60, #70, .T. ) ;
#83 = DIRECTION ( 'NONE',  ( -1.000000000000000000, -0.0000000000000000000, -0.0000000000000000000 ) ) ;
#84 = FACE_BOUND ( 'NONE', #134, .T. ) ;
#85 = CIRCLE ( 'NONE', #19, 3.000000000000000400 ) ;
#86 = DIRECTION ( 'NONE',  ( -1.000000000000000000, -0.0000000000000000000, -0.0000000000000000000 ) ) ;
#87 = AXIS2_PLACEMENT_3D ( 'NONE', #139, #355, #167 ) ;
#88 = DIRECTION ( 'NONE',  ( 0.0000000000000000000, 0.0000000000000000000, 1.000000000000000000 ) ) ;
#89 = LINE ( 'NONE', #13, #147 ) ;
#90 = ORIENTED_EDGE ( 'NONE', *, *, #104, .T. ) ;
#91 = DIRECTION ( 'NONE',  ( -0.9999998993019668700, 0.0001540835965060599100, -0.0004214905712841666200 ) ) ;
#92 = APPLICATION_CONTEXT ( 'automotive_design' ) ;
#93 = ORIENTED_EDGE ( 'NONE', *, *, #82, .F. ) ;
#94 = EDGE_CURVE ( 'NONE', #9, #194, #3, .T. ) ;
#95 = SURFACE_SIDE_STYLE ('',( #224 ) ) ;
#96 = DIRECTION ( 'NONE',  ( -0.7071067811865552300, 8.659560562354837900E-017, -0.7071067811865398000 ) ) ;
#97 = VECTOR ( 'NONE', #96, 1000.000000000000100 ) ;
#98 = DIRECTION ( 'NONE',  ( 0.0000000000000000000, 0.0000000000000000000, 1.000000000000000000 ) ) ;
#99 = EDGE_CURVE ( 'NONE', #304, #238, #181, .T. ) ;
#100 = AXIS2_PLACEMENT_3D ( 'NONE', #122, #300, #270 ) ;
#101 = PRESENTATION_STYLE_ASSIGNMENT (( #345 ) ) ;
#102 = DIRECTION ( 'NONE',  ( 0.0000000000000000000, 0.0000000000000000000, -1.000000000000000000 ) ) ;
#103 = EDGE_LOOP ( 'NONE', ( #264, #273, #163, #331 ) ) ;
#104 = EDGE_CURVE ( 'NONE', #286, #15, #277, .T. ) ;
#105 = COLOUR_RGB ( '',0.7529411764705882200, 0.7529411764705882200, 0.7529411764705882200 ) ;
#106 = AXIS2_PLACEMENT_3D ( 'NONE', #129, #222, #56 ) ;
#107 = VERTEX_POINT ( 'NONE', #178 ) ;
#108 = CARTESIAN_POINT ( 'NONE',  ( 350.0000000000000000, 0.0000000000000000000, 5.000000000000000000 ) ) ;
#109 = PRESENTATION_LAYER_ASSIGNMENT (  '', '', ( #123 ) ) ;
#110 = EDGE_CURVE ( 'NONE', #342, #107, #325, .T. ) ;
#111 = DIRECTION ( 'NONE',  ( 1.000000000000000000, -0.0000000000000000000, -0.0000000000000000000 ) ) ;
#112 = LINE ( 'NONE', #49, #97 ) ;
#113 = ORIENTED_EDGE ( 'NONE', *, *, #27, .T. ) ;
#114 = DIRECTION ( 'NONE',  ( 0.0000000000000000000, -1.000000000000000000, 0.0000000000000000000 ) ) ;
#115 = MECHANICAL_DESIGN_GEOMETRIC_PRESENTATION_REPRESENTATION (  '', ( #274 ), #199 ) ;
#116 = SURFACE_SIDE_STYLE ('',( #172 ) ) ;
#117 = ORIENTED_EDGE ( 'NONE', *, *, #333, .T. ) ;
#118 = CARTESIAN_POINT ( 'NONE',  ( 349.7999999999998400, 0.0000000000000000000, 5.000000000000000000 ) ) ;
#119 = EDGE_LOOP ( 'NONE', ( #166, #153, #120, #376 ) ) ;
#120 = ORIENTED_EDGE ( 'NONE', *, *, #36, .F. ) ;
#121 =( GEOMETRIC_REPRESENTATION_CONTEXT ( 3 ) GLOBAL_UNCERTAINTY_ASSIGNED_CONTEXT ( ( #309 ) ) GLOBAL_UNIT_ASSIGNED_CONTEXT ( ( #6, #200, #33 ) ) REPRESENTATION_CONTEXT ( 'NONE', 'WORKASPACE' ) );
#122 = CARTESIAN_POINT ( 'NONE',  ( -334.9999999999999400, 0.0000000000000000000, 0.0000000000000000000 ) ) ;
#123 = STYLED_ITEM ( 'NONE', ( #101 ), #198 ) ;
#124 = CARTESIAN_POINT ( 'NONE',  ( -335.9999999999999400, 5.510910596163088600E-016, -4.000000000000000000 ) ) ;
#125 = DIRECTION ( 'NONE',  ( -1.000000000000000000, -0.0000000000000000000, -0.0000000000000000000 ) ) ;
#126 = ORIENTED_EDGE ( 'NONE', *, *, #25, .F. ) ;
#127 = DIRECTION ( 'NONE',  ( 0.0000000000000000000, 0.0000000000000000000, 1.000000000000000000 ) ) ;
#128 = UNCERTAINTY_MEASURE_WITH_UNIT (LENGTH_MEASURE( 1.000000000000000100E-005 ), #10, 'distance_accuracy_value', 'NONE');
#129 = CARTESIAN_POINT ( 'NONE',  ( -346.0000000000000000, -2.778373946112511900E-015, -6.475990398232753200E-015 ) ) ;
#130 = VERTEX_POINT ( 'NONE', #243 ) ;
#131 = FILL_AREA_STYLE_COLOUR ( '', #105 ) ;
#132 = CIRCLE ( 'NONE', #375, 1.000000000000000000 ) ;
#133 = SURFACE_SIDE_STYLE ('',( #80 ) ) ;
#134 = EDGE_LOOP ( 'NONE', ( #347, #361 ) ) ;
#135 = CARTESIAN_POINT ( 'NONE',  ( -335.9999999999999400, 0.0000000000000000000, 0.0000000000000000000 ) ) ;
#136 = DIRECTION ( 'NONE',  ( 1.000000000000000000, -0.0000000000000000000, -0.0000000000000000000 ) ) ;
#137 = DIRECTION ( 'NONE',  ( -1.000000000000000000, 0.0000000000000000000, 0.0000000000000000000 ) ) ;
#138 =( GEOMETRIC_REPRESENTATION_CONTEXT ( 3 ) GLOBAL_UNCERTAINTY_ASSIGNED_CONTEXT ( ( #68 ) ) GLOBAL_UNIT_ASSIGNED_CONTEXT ( ( #158, #374, #185 ) ) REPRESENTATION_CONTEXT ( 'NONE', 'WORKASPACE' ) );
#139 = CARTESIAN_POINT ( 'NONE',  ( 350.0000000000000000, 0.0000000000000000000, 0.0000000000000000000 ) ) ;
#140 = FACE_OUTER_BOUND ( 'NONE', #7, .T. ) ;
#141 = CARTESIAN_POINT ( 'NONE',  ( -335.9999999999999400, 0.0000000000000000000, 0.0000000000000000000 ) ) ;
#142 =( LENGTH_UNIT ( ) NAMED_UNIT ( * ) SI_UNIT ( .MILLI., .METRE. ) );
#143 = EDGE_CURVE ( 'NONE', #15, #286, #229, .T. ) ;
#144 = COLOUR_RGB ( '',0.1098039215686274500, 0.1098039215686274500, 0.1098039215686274500 ) ;
#145 = DIRECTION ( 'NONE',  ( -1.000000000000000000, 0.0000000000000000000, 0.0000000000000000000 ) ) ;
#146 = CARTESIAN_POINT ( 'NONE',  ( -335.9999999999999400, 0.0000000000000000000, 0.0000000000000000000 ) ) ;
#147 = VECTOR ( 'NONE', #150, 1000.000000000000000 ) ;
#148 = EDGE_LOOP ( 'NONE', ( #234, #53 ) ) ;
#149 = CARTESIAN_POINT ( 'NONE',  ( -335.9999999999999400, 3.673940397442060400E-016, -3.000000000000000400 ) ) ;
#150 = DIRECTION ( 'NONE',  ( -1.000000000000000000, -0.0000000000000000000, -0.0000000000000000000 ) ) ;
#151 = AXIS2_PLACEMENT_3D ( 'NONE', #50, #365, #154 ) ;
#152 = DIRECTION ( 'NONE',  ( 0.0000000000000000000, 0.0000000000000000000, 1.000000000000000000 ) ) ;
#153 = ORIENTED_EDGE ( 'NONE', *, *, #110, .T. ) ;
#154 = DIRECTION ( 'NONE',  ( 0.0000000000000000000, 0.0000000000000000000, 1.000000000000000000 ) ) ;
#155 = CIRCLE ( 'NONE', #65, 10.00000000000000000 ) ;
#156 = SURFACE_SIDE_STYLE ('',( #380 ) ) ;
#157 = STYLED_ITEM ( 'NONE', ( #57 ), #5 ) ;
#158 =( LENGTH_UNIT ( ) NAMED_UNIT ( * ) SI_UNIT ( .MILLI., .METRE. ) );
#159 = ORIENTED_EDGE ( 'NONE', *, *, #366, .T. ) ;
#160 = EDGE_LOOP ( 'NONE', ( #317, #242, #195, #93 ) ) ;
#161 = EDGE_CURVE ( 'NONE', #293, #171, #89, .T. ) ;
#162 = ADVANCED_FACE ( 'NONE', ( #140 ), #74, .T. ) ;
#163 = ORIENTED_EDGE ( 'NONE', *, *, #99, .T. ) ;
#164 = EDGE_CURVE ( 'NONE', #194, #293, #112, .T. ) ;
#165 = DIRECTION ( 'NONE',  ( 0.0000000000000000000, 0.0000000000000000000, 1.000000000000000000 ) ) ;
#166 = ORIENTED_EDGE ( 'NONE', *, *, #372, .T. ) ;
#167 = DIRECTION ( 'NONE',  ( 0.0000000000000000000, 0.0000000000000000000, -1.000000000000000000 ) ) ;
#168 = DIRECTION ( 'NONE',  ( 0.0000000000000000000, 0.0000000000000000000, 1.000000000000000000 ) ) ;
#169 = PRESENTATION_LAYER_ASSIGNMENT (  '', '', ( #180 ) ) ;
#170 =( NAMED_UNIT ( * ) SI_UNIT ( $, .STERADIAN. ) SOLID_ANGLE_UNIT ( ) );
#171 = VERTEX_POINT ( 'NONE', #16 ) ;
#172 = SURFACE_STYLE_FILL_AREA ( #294 ) ;
#173 = ORIENTED_EDGE ( 'NONE', *, *, #46, .F. ) ;
#174 = PRESENTATION_LAYER_ASSIGNMENT (  '', '', ( #157 ) ) ;
#175 = DIRECTION ( 'NONE',  ( 0.0000000000000000000, 0.0000000000000000000, -1.000000000000000000 ) ) ;
#176 = PRESENTATION_STYLE_ASSIGNMENT (( #373 ) ) ;
#177 = CARTESIAN_POINT ( 'NONE',  ( 350.0000000000000000, 0.0000000000000000000, 4.799999999999860400 ) ) ;
#178 = CARTESIAN_POINT ( 'NONE',  ( -336.4606079858305100, 3.673940397442060400E-016, -3.000000000000000400 ) ) ;
#179 = EDGE_LOOP ( 'NONE', ( #371, #35, #204, #343 ) ) ;
#180 = STYLED_ITEM ( 'NONE', ( #213 ), #58 ) ;
#181 = LINE ( 'NONE', #239, #302 ) ;
#182 =( LENGTH_UNIT ( ) NAMED_UNIT ( * ) SI_UNIT ( .MILLI., .METRE. ) );
#183 = AXIS2_PLACEMENT_3D ( 'NONE', #26, #382, #192 ) ;
#184 = ORIENTED_EDGE ( 'NONE', *, *, #164, .F. ) ;
#185 =( NAMED_UNIT ( * ) SI_UNIT ( $, .STERADIAN. ) SOLID_ANGLE_UNIT ( ) );
#186 = EDGE_LOOP ( 'NONE', ( #219, #311, #117, #339 ) ) ;
#187 = AXIS2_PLACEMENT_3D ( 'NONE', #278, #214, #152 ) ;
#188 = ADVANCED_FACE ( 'NONE', ( #350 ), #51, .T. ) ;
#189 = MANIFOLD_SOLID_BREP ( 'Defeature completata1', #75 ) ;
#190 = CYLINDRICAL_SURFACE ( 'NONE', #289, 3.000000000000000400 ) ;
#191 = DIRECTION ( 'NONE',  ( -1.000000000000000000, -0.0000000000000000000, -0.0000000000000000000 ) ) ;
#192 = DIRECTION ( 'NONE',  ( 0.0000000000000000000, 0.0000000000000000000, 1.000000000000000000 ) ) ;
#193 = FACE_OUTER_BOUND ( 'NONE', #160, .T. ) ;
#194 = VERTEX_POINT ( 'NONE', #79 ) ;
#195 = ORIENTED_EDGE ( 'NONE', *, *, #11, .F. ) ;
#196 = DIRECTION ( 'NONE',  ( 0.0000000000000000000, 1.000000000000000000, 1.224646799147353200E-016 ) ) ;
#197 = MECHANICAL_DESIGN_GEOMETRIC_PRESENTATION_REPRESENTATION (  '', ( #157 ), #216 ) ;
#198 = ADVANCED_FACE ( 'NONE', ( #237, #84 ), #324, .T. ) ;
#199 =( GEOMETRIC_REPRESENTATION_CONTEXT ( 3 ) GLOBAL_UNCERTAINTY_ASSIGNED_CONTEXT ( ( #37 ) ) GLOBAL_UNIT_ASSIGNED_CONTEXT ( ( #182, #20, #215 ) ) REPRESENTATION_CONTEXT ( 'NONE', 'WORKASPACE' ) );
#200 =( NAMED_UNIT ( * ) PLANE_ANGLE_UNIT ( ) SI_UNIT ( $, .RADIAN. ) );
#201 = DIRECTION ( 'NONE',  ( 0.0000000000000000000, 0.0000000000000000000, 1.000000000000000000 ) ) ;
#202 = ADVANCED_FACE ( 'NONE', ( #208 ), #370, .T. ) ;
#203 = DIRECTION ( 'NONE',  ( -0.9999998993019667500, 0.0001540835965058788000, -0.0004214905712845888100 ) ) ;
#204 = ORIENTED_EDGE ( 'NONE', *, *, #206, .T. ) ;
#205 = FILL_AREA_STYLE_COLOUR ( '', #144 ) ;
#206 = EDGE_CURVE ( 'NONE', #60, #48, #28, .T. ) ;
#207 = CARTESIAN_POINT ( 'NONE',  ( 350.0000000000000000, 0.0000000000000000000, 0.0000000000000000000 ) ) ;
#208 = FACE_OUTER_BOUND ( 'NONE', #179, .T. ) ;
#209 = DIRECTION ( 'NONE',  ( -1.000000000000000000, -0.0000000000000000000, -0.0000000000000000000 ) ) ;
#210 = CARTESIAN_POINT ( 'NONE',  ( 350.0000000000000000, 0.0000000000000000000, 0.0000000000000000000 ) ) ;
#211 = DIRECTION ( 'NONE',  ( 0.0000000000000000000, 0.0000000000000000000, -1.000000000000000000 ) ) ;
#212 = DIRECTION ( 'NONE',  ( -1.000000000000000000, -0.0000000000000000000, -0.0000000000000000000 ) ) ;
#213 = PRESENTATION_STYLE_ASSIGNMENT (( #298 ) ) ;
#214 = DIRECTION ( 'NONE',  ( -1.000000000000000000, 0.0000000000000000000, 0.0000000000000000000 ) ) ;
#215 =( NAMED_UNIT ( * ) SI_UNIT ( $, .STERADIAN. ) SOLID_ANGLE_UNIT ( ) );
#216 =( GEOMETRIC_REPRESENTATION_CONTEXT ( 3 ) GLOBAL_UNCERTAINTY_ASSIGNED_CONTEXT ( ( #378 ) ) GLOBAL_UNIT_ASSIGNED_CONTEXT ( ( #142, #357, #170 ) ) REPRESENTATION_CONTEXT ( 'NONE', 'WORKASPACE' ) );
#217 = VECTOR ( 'NONE', #76, 1000.000000000000000 ) ;
#218 = AXIS2_PLACEMENT_3D ( 'NONE', #272, #73, #175 ) ;
#219 = ORIENTED_EDGE ( 'NONE', *, *, #287, .F. ) ;
#220 = CIRCLE ( 'NONE', #337, 1.000000000000000000 ) ;
#221 = ADVANCED_FACE ( 'NONE', ( #55 ), #190, .T. ) ;
#222 = DIRECTION ( 'NONE',  ( -0.9999998993019667500, 0.0001540835965058788000, -0.0004214905712845888100 ) ) ;
#223 = SPHERICAL_SURFACE ( 'NONE', #283, 10.00000000000000000 ) ;
#224 = SURFACE_STYLE_FILL_AREA ( #334 ) ;
#225 = COLOUR_RGB ( '',0.7529411764705882200, 0.7529411764705882200, 0.7529411764705882200 ) ;
#226 = CARTESIAN_POINT ( 'NONE',  ( 349.7999999999998400, 6.123233995736766300E-016, -5.000000000000000000 ) ) ;
#227 =( GEOMETRIC_REPRESENTATION_CONTEXT ( 3 ) GLOBAL_UNCERTAINTY_ASSIGNED_CONTEXT ( ( #128 ) ) GLOBAL_UNIT_ASSIGNED_CONTEXT ( ( #10, #267, #235 ) ) REPRESENTATION_CONTEXT ( 'NONE', 'WORKASPACE' ) );
#228 = DIRECTION ( 'NONE',  ( -1.000000000000000000, -0.0000000000000000000, -0.0000000000000000000 ) ) ;
#229 = CIRCLE ( 'NONE', #251, 4.000000000000000000 ) ;
#230 = ORIENTED_EDGE ( 'NONE', *, *, #287, .T. ) ;
#231 = FILL_AREA_STYLE_COLOUR ( '', #225 ) ;
#232 = AXIS2_PLACEMENT_3D ( 'NONE', #207, #43, #236 ) ;
#233 = PRODUCT_CONTEXT ( 'NONE', #92, 'mechanical' ) ;
#234 = ORIENTED_EDGE ( 'NONE', *, *, #94, .T. ) ;
#235 =( NAMED_UNIT ( * ) SI_UNIT ( $, .STERADIAN. ) SOLID_ANGLE_UNIT ( ) );
#236 = DIRECTION ( 'NONE',  ( 0.0000000000000000000, 0.0000000000000000000, -1.000000000000000000 ) ) ;
#237 = FACE_OUTER_BOUND ( 'NONE', #244, .T. ) ;
#238 = VERTEX_POINT ( 'NONE', #254 ) ;
#239 = CARTESIAN_POINT ( 'NONE',  ( -335.9999999999999400, 0.0000000000000000000, 3.000000000000000400 ) ) ;
#240 = AXIS2_PLACEMENT_3D ( 'NONE', #12, #145, #360 ) ;
#241 = CARTESIAN_POINT ( 'NONE',  ( 349.7999999999998400, 0.0000000000000000000, 0.0000000000000000000 ) ) ;
#242 = ORIENTED_EDGE ( 'NONE', *, *, #164, .T. ) ;
#243 = CARTESIAN_POINT ( 'NONE',  ( -346.0030779159015400, -9.189843626876388800, 3.942938579282351300 ) ) ;
#244 = EDGE_LOOP ( 'NONE', ( #18, #113 ) ) ;
#245 = FACE_OUTER_BOUND ( 'NONE', #148, .T. ) ;
#246 = EDGE_CURVE ( 'NONE', #48, #171, #369, .T. ) ;
#247 = DIRECTION ( 'NONE',  ( 0.0004214905762855991600, 0.0000000000000000000, -0.9999999111728431500 ) ) ;
#248 = SHAPE_DEFINITION_REPRESENTATION ( #332, #5 ) ;
#249 = DIRECTION ( 'NONE',  ( 0.0000000000000000000, 0.0000000000000000000, 1.000000000000000000 ) ) ;
#250 = CIRCLE ( 'NONE', #218, 4.799999999999860400 ) ;
#251 = AXIS2_PLACEMENT_3D ( 'NONE', #146, #17, #335 ) ;
#252 = ORIENTED_EDGE ( 'NONE', *, *, #333, .F. ) ;
#253 = CARTESIAN_POINT ( 'NONE',  ( 350.0000000000000000, 0.0000000000000000000, 0.0000000000000000000 ) ) ;
#254 = CARTESIAN_POINT ( 'NONE',  ( -336.4606079858305100, 0.0000000000000000000, 3.000000000000000400 ) ) ;
#255 = CYLINDRICAL_SURFACE ( 'NONE', #40, 3.000000000000000400 ) ;
#256 = CARTESIAN_POINT ( 'NONE',  ( -335.9999999999999400, 0.0000000000000000000, 0.0000000000000000000 ) ) ;
#257 = EDGE_LOOP ( 'NONE', ( #90, #351 ) ) ;
#258 = CARTESIAN_POINT ( 'NONE',  ( -335.9999999999999400, 0.0000000000000000000, 3.000000000000000400 ) ) ;
#259 = VERTEX_POINT ( 'NONE', #59 ) ;
#260 = ADVANCED_FACE ( 'NONE', ( #276, #362 ), #379, .T. ) ;
#261 = PLANE ( 'NONE',  #87 ) ;
#262 = EDGE_CURVE ( 'NONE', #171, #48, #307, .T. ) ;
#263 = CARTESIAN_POINT ( 'NONE',  ( -346.0000000000000000, -2.778373946112511900E-015, -6.475990398232753200E-015 ) ) ;
#264 = ORIENTED_EDGE ( 'NONE', *, *, #110, .F. ) ;
#265 = APPLICATION_PROTOCOL_DEFINITION ( 'draft international standard', 'automotive_design', 1998, #67 ) ;
#266 = FACE_OUTER_BOUND ( 'NONE', #119, .T. ) ;
#267 =( NAMED_UNIT ( * ) PLANE_ANGLE_UNIT ( ) SI_UNIT ( $, .RADIAN. ) );
#268 = COLOUR_RGB ( '',0.1098039215686274500, 0.1098039215686274500, 0.1098039215686274500 ) ;
#269 = ORIENTED_EDGE ( 'NONE', *, *, #161, .T. ) ;
#270 = DIRECTION ( 'NONE',  ( 0.0000000000000000000, 0.0000000000000000000, 1.000000000000000000 ) ) ;
#271 = AXIS2_PLACEMENT_3D ( 'NONE', #290, #137, #88 ) ;
#272 = CARTESIAN_POINT ( 'NONE',  ( 350.0000000000000000, 0.0000000000000000000, 0.0000000000000000000 ) ) ;
#273 = ORIENTED_EDGE ( 'NONE', *, *, #46, .T. ) ;
#274 = STYLED_ITEM ( 'NONE', ( #176 ), #189 ) ;
#275 = CARTESIAN_POINT ( 'NONE',  ( 350.0000000000000000, 0.0000000000000000000, 4.799999999999860400 ) ) ;
#276 = FACE_OUTER_BOUND ( 'NONE', #257, .T. ) ;
#277 = CIRCLE ( 'NONE', #151, 4.000000000000000000 ) ;
#278 = CARTESIAN_POINT ( 'NONE',  ( -334.9999999999999400, 0.0000000000000000000, 0.0000000000000000000 ) ) ;
#279 = ORIENTED_EDGE ( 'NONE', *, *, #94, .F. ) ;
#280 = FILL_AREA_STYLE_COLOUR ( '', #268 ) ;
#281 = AXIS2_PLACEMENT_3D ( 'NONE', #329, #201, #34 ) ;
#282 = VECTOR ( 'NONE', #285, 1000.000000000000000 ) ;
#283 = AXIS2_PLACEMENT_3D ( 'NONE', #78, #203, #39 ) ;
#284 = ORIENTED_EDGE ( 'NONE', *, *, #27, .F. ) ;
#285 = DIRECTION ( 'NONE',  ( -1.000000000000000000, -0.0000000000000000000, -0.0000000000000000000 ) ) ;
#286 = VERTEX_POINT ( 'NONE', #62 ) ;
#287 = EDGE_CURVE ( 'NONE', #171, #15, #132, .T. ) ;
#288 = CARTESIAN_POINT ( 'NONE',  ( -334.9999999999999400, 0.0000000000000000000, 0.0000000000000000000 ) ) ;
#289 = AXIS2_PLACEMENT_3D ( 'NONE', #135, #191, #321 ) ;
#290 = CARTESIAN_POINT ( 'NONE',  ( 350.0000000000000000, 0.0000000000000000000, 0.0000000000000000000 ) ) ;
#291 = CARTESIAN_POINT ( 'NONE',  ( -334.9999999999999400, 0.0000000000000000000, 4.000000000000000000 ) ) ;
#292 = DIRECTION ( 'NONE',  ( -0.0004214905762855991600, 0.0000000000000000000, 0.9999999111728431500 ) ) ;
#293 = VERTEX_POINT ( 'NONE', #226 ) ;
#294 = FILL_AREA_STYLE ('',( #231 ) ) ;
#295 = AXIS2_PLACEMENT_3D ( 'NONE', #210, #212, #310 ) ;
#296 = ADVANCED_FACE ( 'NONE', ( #266 ), #255, .T. ) ;
#297 = FACE_OUTER_BOUND ( 'NONE', #318, .T. ) ;
#298 = SURFACE_STYLE_USAGE ( .BOTH. , #95 ) ;
#299 = FACE_OUTER_BOUND ( 'NONE', #42, .T. ) ;
#300 = DIRECTION ( 'NONE',  ( -1.000000000000000000, 0.0000000000000000000, 0.0000000000000000000 ) ) ;
#301 = PRODUCT_DEFINITION ( 'NON CONOSCIUTO', '', #326, #45 ) ;
#302 = VECTOR ( 'NONE', #209, 1000.000000000000000 ) ;
#303 = CARTESIAN_POINT ( 'NONE',  ( 349.7999999999998400, 0.0000000000000000000, 0.0000000000000000000 ) ) ;
#304 = VERTEX_POINT ( 'NONE', #258 ) ;
#305 = AXIS2_PLACEMENT_3D ( 'NONE', #303, #308, #102 ) ;
#306 = DIRECTION ( 'NONE',  ( 0.9999998993019668700, -0.0001540835965060116400, 0.0004214905712842791600 ) ) ;
#307 = CIRCLE ( 'NONE', #31, 5.000000000000000000 ) ;
#308 = DIRECTION ( 'NONE',  ( -1.000000000000000000, 0.0000000000000000000, 0.0000000000000000000 ) ) ;
#309 = UNCERTAINTY_MEASURE_WITH_UNIT (LENGTH_MEASURE( 1.000000000000000100E-005 ), #6, 'distance_accuracy_value', 'NONE');
#310 = DIRECTION ( 'NONE',  ( 0.0000000000000000000, 0.0000000000000000000, 1.000000000000000000 ) ) ;
#311 = ORIENTED_EDGE ( 'NONE', *, *, #246, .F. ) ;
#312 = FACE_OUTER_BOUND ( 'NONE', #186, .T. ) ;
#313 = ORIENTED_EDGE ( 'NONE', *, *, #372, .F. ) ;
#314 = FILL_AREA_STYLE ('',( #280 ) ) ;
#315 = AXIS2_PLACEMENT_3D ( 'NONE', #32, #228, #63 ) ;
#316 = ADVANCED_FACE ( 'NONE', ( #299 ), #71, .T. ) ;
#317 = ORIENTED_EDGE ( 'NONE', *, *, #61, .F. ) ;
#318 = EDGE_LOOP ( 'NONE', ( #284, #159 ) ) ;
#319 = EDGE_CURVE ( 'NONE', #107, #238, #377, .T. ) ;
#320 = EDGE_LOOP ( 'NONE', ( #64, #269, #359, #353 ) ) ;
#321 = DIRECTION ( 'NONE',  ( 0.0000000000000000000, 0.0000000000000000000, 1.000000000000000000 ) ) ;
#322 = CARTESIAN_POINT ( 'NONE',  ( -334.9999999999999400, 0.0000000000000000000, 0.0000000000000000000 ) ) ;
#323 = DIRECTION ( 'NONE',  ( 0.0000000000000000000, 0.0000000000000000000, 1.000000000000000000 ) ) ;
#324 = SPHERICAL_SURFACE ( 'NONE', #106, 10.00000000000000000 ) ;
#325 = LINE ( 'NONE', #149, #217 ) ;
#326 = PRODUCT_DEFINITION_FORMATION_WITH_SPECIFIED_SOURCE ( 'TUTTO', '', #352, .NOT_KNOWN. ) ;
#327 = DIRECTION ( 'NONE',  ( 0.0000000000000000000, 0.0000000000000000000, -1.000000000000000000 ) ) ;
#328 = MECHANICAL_DESIGN_GEOMETRIC_PRESENTATION_REPRESENTATION (  '', ( #180 ), #227 ) ;
#329 = CARTESIAN_POINT ( 'NONE',  ( 0.0000000000000000000, 0.0000000000000000000, 0.0000000000000000000 ) ) ;
#330 = SURFACE_STYLE_USAGE ( .BOTH. , #116 ) ;
#331 = ORIENTED_EDGE ( 'NONE', *, *, #319, .F. ) ;
#332 = PRODUCT_DEFINITION_SHAPE ( 'NONE', 'NONE',  #301 ) ;
#333 = EDGE_CURVE ( 'NONE', #48, #286, #220, .T. ) ;
#334 = FILL_AREA_STYLE ('',( #205 ) ) ;
#335 = DIRECTION ( 'NONE',  ( 0.0000000000000000000, 0.0000000000000000000, 1.000000000000000000 ) ) ;
#336 = EDGE_LOOP ( 'NONE', ( #313, #173 ) ) ;
#337 = AXIS2_PLACEMENT_3D ( 'NONE', #291, #114, #327 ) ;
#338 = CARTESIAN_POINT ( 'NONE',  ( -336.4606079858305100, 0.0000000000000000000, 0.0000000000000000000 ) ) ;
#339 = ORIENTED_EDGE ( 'NONE', *, *, #143, .F. ) ;
#340 = CIRCLE ( 'NONE', #52, 3.000000000000000400 ) ;
#341 = FILL_AREA_STYLE ('',( #131 ) ) ;
#342 = VERTEX_POINT ( 'NONE', #2 ) ;
#343 = ORIENTED_EDGE ( 'NONE', *, *, #246, .T. ) ;
#344 = CIRCLE ( 'NONE', #305, 5.000000000000000000 ) ;
#345 = SURFACE_STYLE_USAGE ( .BOTH. , #133 ) ;
#346 = PRODUCT_RELATED_PRODUCT_CATEGORY ( 'part', '', ( #352 ) ) ;
#347 = ORIENTED_EDGE ( 'NONE', *, *, #36, .T. ) ;
#348 = ADVANCED_FACE ( 'NONE', ( #245 ), #261, .T. ) ;
#349 = DIRECTION ( 'NONE',  ( 0.0000000000000000000, 0.0000000000000000000, 1.000000000000000000 ) ) ;
#350 = FACE_OUTER_BOUND ( 'NONE', #320, .T. ) ;
#351 = ORIENTED_EDGE ( 'NONE', *, *, #143, .T. ) ;
#352 = PRODUCT ( '01_080_2', '01_080_2', '', ( #233 ) ) ;
#353 = ORIENTED_EDGE ( 'NONE', *, *, #206, .F. ) ;
#354 = AXIS2_PLACEMENT_3D ( 'NONE', #263, #91, #292 ) ;
#355 = DIRECTION ( 'NONE',  ( 1.000000000000000000, 0.0000000000000000000, 0.0000000000000000000 ) ) ;
#356 = DIRECTION ( 'NONE',  ( -1.000000000000000000, 0.0000000000000000000, 0.0000000000000000000 ) ) ;
#357 =( NAMED_UNIT ( * ) PLANE_ANGLE_UNIT ( ) SI_UNIT ( $, .RADIAN. ) );
#358 = PRESENTATION_LAYER_ASSIGNMENT (  '', '', ( #274 ) ) ;
#359 = ORIENTED_EDGE ( 'NONE', *, *, #262, .T. ) ;
#360 = DIRECTION ( 'NONE',  ( 0.0000000000000000000, 0.0000000000000000000, 1.000000000000000000 ) ) ;
#361 = ORIENTED_EDGE ( 'NONE', *, *, #319, .T. ) ;
#362 = FACE_BOUND ( 'NONE', #336, .T. ) ;
#363 = DIRECTION ( 'NONE',  ( -1.000000000000000000, 0.0000000000000000000, 0.0000000000000000000 ) ) ;
#364 = DIRECTION ( 'NONE',  ( -0.7071067811865552300, 0.0000000000000000000, 0.7071067811865398000 ) ) ;
#365 = DIRECTION ( 'NONE',  ( -1.000000000000000000, 0.0000000000000000000, 0.0000000000000000000 ) ) ;
#366 = EDGE_CURVE ( 'NONE', #259, #130, #368, .T. ) ;
#367 = CARTESIAN_POINT ( 'NONE',  ( -346.0000000000000000, -2.778373946112511900E-015, -6.475990398232753200E-015 ) ) ;
#368 = CIRCLE ( 'NONE', #354, 10.00000000000000000 ) ;
#369 = CIRCLE ( 'NONE', #14, 5.000000000000000000 ) ;
#370 = CYLINDRICAL_SURFACE ( 'NONE', #72, 5.000000000000000000 ) ;
#371 = ORIENTED_EDGE ( 'NONE', *, *, #161, .F. ) ;
#372 = EDGE_CURVE ( 'NONE', #304, #342, #340, .T. ) ;
#373 = SURFACE_STYLE_USAGE ( .BOTH. , #156 ) ;
#374 =( NAMED_UNIT ( * ) PLANE_ANGLE_UNIT ( ) SI_UNIT ( $, .RADIAN. ) );
#375 = AXIS2_PLACEMENT_3D ( 'NONE', #1, #196, #29 ) ;
#376 = ORIENTED_EDGE ( 'NONE', *, *, #99, .F. ) ;
#377 = CIRCLE ( 'NONE', #315, 3.000000000000000400 ) ;
#378 = UNCERTAINTY_MEASURE_WITH_UNIT (LENGTH_MEASURE( 1.000000000000000100E-005 ), #142, 'distance_accuracy_value', 'NONE');
#379 = PLANE ( 'NONE',  #183 ) ;
#380 = SURFACE_STYLE_FILL_AREA ( #341 ) ;
#381 = TOROIDAL_SURFACE ( 'NONE', #187, 4.000000000000000000, 1.000000000000000000 ) ;
#382 = DIRECTION ( 'NONE',  ( -1.000000000000000000, 0.0000000000000000000, 0.0000000000000000000 ) ) ;
ENDSEC;
END-ISO-10303-21;
