ISO-10303-21;
HEADER;
/* Generated by software containing ST-Developer
 * from STEP Tools, Inc. (www.steptools.com) 
 */
/* OPTION: strings as raw bytes, not using required /X/ escapes */

FILE_DESCRIPTION(( 'RA.11.M5.M5.stp' ), '1');
FILE_NAME( 'RA.11.M5.M5.stp', '2018-09-27T17:27:25',( 'Sopra'),('sopra-pneumatic.com'), 'SwSTEP 2.0','SolidWorks 2009','' );
FILE_SCHEMA (('AUTOMOTIVE_DESIGN {1 0 10303 214 3 1 1}'));
ENDSEC;

DATA;
#10=PROPERTY_DEFINITION_REPRESENTATION(#14,#12);
#11=PROPERTY_DEFINITION_REPRESENTATION(#15,#13);
#12=REPRESENTATION('',(#16),#636);
#13=REPRESENTATION('',(#17),#636);
#14=PROPERTY_DEFINITION('pmi validation property','',#641);
#15=PROPERTY_DEFINITION('pmi validation property','',#641);
#16=VALUE_REPRESENTATION_ITEM('number of annotations',COUNT_MEASURE(0.));
#17=VALUE_REPRESENTATION_ITEM('number of views',COUNT_MEASURE(0.));
#18=SHAPE_REPRESENTATION_RELATIONSHIP('','',#410,#19);
#19=ADVANCED_BREP_SHAPE_REPRESENTATION('',(#408),#636);
#20=CYLINDRICAL_SURFACE('',#425,2.5);
#21=CYLINDRICAL_SURFACE('',#427,2.5);
#22=CYLINDRICAL_SURFACE('',#432,2.5);
#23=CYLINDRICAL_SURFACE('',#435,2.5);
#24=CYLINDRICAL_SURFACE('',#442,1.);
#25=CIRCLE('',#419,3.95);
#26=CIRCLE('',#421,1.);
#27=CIRCLE('',#422,1.95);
#28=CIRCLE('',#424,2.5);
#29=CIRCLE('',#426,2.5);
#30=CIRCLE('',#428,2.5);
#31=CIRCLE('',#431,3.95);
#32=CIRCLE('',#433,2.5);
#33=CIRCLE('',#434,2.5);
#34=CIRCLE('',#436,2.5);
#35=CIRCLE('',#439,1.95);
#36=CIRCLE('',#441,1.);
#37=CONICAL_SURFACE('',#418,3.95,1.0471975511966);
#38=CONICAL_SURFACE('',#423,1.95,0.785398163397453);
#39=CONICAL_SURFACE('',#430,3.95,1.0471975511966);
#40=CONICAL_SURFACE('',#438,1.95,0.785398163397453);
#41=B_SPLINE_CURVE_WITH_KNOTS('',3,(#518,#519,#520,#521,#522),
 .UNSPECIFIED.,.F.,.F.,(4,1,4),(0.00411583079912888,0.00645276702167714,
0.00878970324422541),.UNSPECIFIED.);
#42=B_SPLINE_CURVE_WITH_KNOTS('',3,(#526,#527,#528,#529,#530),
 .UNSPECIFIED.,.F.,.F.,(4,1,4),(0.00411583079912888,0.00645276702167715,
0.00878970324422541),.UNSPECIFIED.);
#43=B_SPLINE_CURVE_WITH_KNOTS('',3,(#532,#533,#534,#535,#536),
 .UNSPECIFIED.,.F.,.F.,(4,1,4),(2.38073758165028E-7,0.00233260784677474,
0.00466497761979132),.UNSPECIFIED.);
#44=B_SPLINE_CURVE_WITH_KNOTS('',3,(#540,#541,#542,#543,#544),
 .UNSPECIFIED.,.F.,.F.,(4,1,4),(2.38073758162091E-7,0.00233260784677474,
0.00466497761979132),.UNSPECIFIED.);
#45=B_SPLINE_CURVE_WITH_KNOTS('',3,(#546,#547,#548,#549,#550),
 .UNSPECIFIED.,.F.,.F.,(4,1,4),(2.38073758172596E-7,0.00233260784677476,
0.00466497761979134),.UNSPECIFIED.);
#46=B_SPLINE_CURVE_WITH_KNOTS('',3,(#554,#555,#556,#557,#558),
 .UNSPECIFIED.,.F.,.F.,(4,1,4),(2.38073758169772E-7,0.00233260784677476,
0.00466497761979134),.UNSPECIFIED.);
#47=B_SPLINE_CURVE_WITH_KNOTS('',3,(#560,#561,#562,#563,#564),
 .UNSPECIFIED.,.F.,.F.,(4,1,4),(0.0041158307991289,0.00645276702167716,
0.00878970324422542),.UNSPECIFIED.);
#48=B_SPLINE_CURVE_WITH_KNOTS('',3,(#568,#569,#570,#571,#572),
 .UNSPECIFIED.,.F.,.F.,(4,1,4),(0.0041158307991289,0.00645276702167716,
0.00878970324422542),.UNSPECIFIED.);
#49=B_SPLINE_CURVE_WITH_KNOTS('',3,(#574,#575,#576,#577,#578),
 .UNSPECIFIED.,.F.,.F.,(4,1,4),(2.38073758173062E-7,0.00233260784677476,
0.00466497761979134),.UNSPECIFIED.);
#50=B_SPLINE_CURVE_WITH_KNOTS('',3,(#582,#583,#584,#585,#586),
 .UNSPECIFIED.,.F.,.F.,(4,1,4),(2.38073758170125E-7,0.00233260784677475,
0.00466497761979134),.UNSPECIFIED.);
#51=B_SPLINE_CURVE_WITH_KNOTS('',3,(#588,#589,#590,#591,#592),
 .UNSPECIFIED.,.F.,.F.,(4,1,4),(2.38073758165648E-7,0.00233260784677475,
0.00466497761979134),.UNSPECIFIED.);
#52=B_SPLINE_CURVE_WITH_KNOTS('',3,(#593,#594,#595,#596,#597),
 .UNSPECIFIED.,.F.,.F.,(4,1,4),(2.38073758162376E-7,0.00233260784677475,
0.00466497761979134),.UNSPECIFIED.);
#53=ORIENTED_EDGE('',*,*,#113,.T.);
#54=ORIENTED_EDGE('',*,*,#114,.T.);
#55=ORIENTED_EDGE('',*,*,#115,.F.);
#56=ORIENTED_EDGE('',*,*,#116,.F.);
#57=ORIENTED_EDGE('',*,*,#115,.T.);
#58=ORIENTED_EDGE('',*,*,#117,.T.);
#59=ORIENTED_EDGE('',*,*,#118,.F.);
#60=ORIENTED_EDGE('',*,*,#119,.F.);
#61=ORIENTED_EDGE('',*,*,#118,.T.);
#62=ORIENTED_EDGE('',*,*,#120,.T.);
#63=ORIENTED_EDGE('',*,*,#121,.F.);
#64=ORIENTED_EDGE('',*,*,#122,.F.);
#65=ORIENTED_EDGE('',*,*,#121,.T.);
#66=ORIENTED_EDGE('',*,*,#123,.T.);
#67=ORIENTED_EDGE('',*,*,#124,.F.);
#68=ORIENTED_EDGE('',*,*,#125,.F.);
#69=ORIENTED_EDGE('',*,*,#124,.T.);
#70=ORIENTED_EDGE('',*,*,#126,.T.);
#71=ORIENTED_EDGE('',*,*,#127,.F.);
#72=ORIENTED_EDGE('',*,*,#128,.F.);
#73=ORIENTED_EDGE('',*,*,#127,.T.);
#74=ORIENTED_EDGE('',*,*,#129,.T.);
#75=ORIENTED_EDGE('',*,*,#113,.F.);
#76=ORIENTED_EDGE('',*,*,#130,.F.);
#77=ORIENTED_EDGE('',*,*,#128,.T.);
#78=ORIENTED_EDGE('',*,*,#130,.T.);
#79=ORIENTED_EDGE('',*,*,#116,.T.);
#80=ORIENTED_EDGE('',*,*,#119,.T.);
#81=ORIENTED_EDGE('',*,*,#122,.T.);
#82=ORIENTED_EDGE('',*,*,#125,.T.);
#83=ORIENTED_EDGE('',*,*,#131,.F.);
#84=ORIENTED_EDGE('',*,*,#132,.T.);
#85=ORIENTED_EDGE('',*,*,#133,.T.);
#86=ORIENTED_EDGE('',*,*,#134,.T.);
#87=ORIENTED_EDGE('',*,*,#133,.F.);
#88=ORIENTED_EDGE('',*,*,#135,.T.);
#89=ORIENTED_EDGE('',*,*,#134,.F.);
#90=ORIENTED_EDGE('',*,*,#135,.F.);
#91=ORIENTED_EDGE('',*,*,#136,.T.);
#92=ORIENTED_EDGE('',*,*,#131,.T.);
#93=ORIENTED_EDGE('',*,*,#136,.F.);
#94=ORIENTED_EDGE('',*,*,#129,.F.);
#95=ORIENTED_EDGE('',*,*,#126,.F.);
#96=ORIENTED_EDGE('',*,*,#123,.F.);
#97=ORIENTED_EDGE('',*,*,#120,.F.);
#98=ORIENTED_EDGE('',*,*,#117,.F.);
#99=ORIENTED_EDGE('',*,*,#114,.F.);
#100=ORIENTED_EDGE('',*,*,#137,.T.);
#101=ORIENTED_EDGE('',*,*,#138,.T.);
#102=ORIENTED_EDGE('',*,*,#139,.T.);
#103=ORIENTED_EDGE('',*,*,#139,.F.);
#104=ORIENTED_EDGE('',*,*,#140,.F.);
#105=ORIENTED_EDGE('',*,*,#137,.F.);
#106=ORIENTED_EDGE('',*,*,#140,.T.);
#107=ORIENTED_EDGE('',*,*,#138,.F.);
#108=ORIENTED_EDGE('',*,*,#141,.T.);
#109=ORIENTED_EDGE('',*,*,#142,.F.);
#110=ORIENTED_EDGE('',*,*,#141,.F.);
#111=ORIENTED_EDGE('',*,*,#142,.T.);
#112=ORIENTED_EDGE('',*,*,#132,.F.);
#113=EDGE_CURVE('',#143,#144,#167,.T.);
#114=EDGE_CURVE('',#144,#145,#41,.F.);
#115=EDGE_CURVE('',#146,#145,#168,.T.);
#116=EDGE_CURVE('',#143,#146,#42,.F.);
#117=EDGE_CURVE('',#145,#147,#43,.T.);
#118=EDGE_CURVE('',#148,#147,#169,.T.);
#119=EDGE_CURVE('',#146,#148,#44,.T.);
#120=EDGE_CURVE('',#147,#149,#45,.T.);
#121=EDGE_CURVE('',#150,#149,#170,.T.);
#122=EDGE_CURVE('',#148,#150,#46,.T.);
#123=EDGE_CURVE('',#149,#151,#47,.T.);
#124=EDGE_CURVE('',#152,#151,#171,.T.);
#125=EDGE_CURVE('',#150,#152,#48,.T.);
#126=EDGE_CURVE('',#151,#153,#49,.T.);
#127=EDGE_CURVE('',#154,#153,#172,.T.);
#128=EDGE_CURVE('',#152,#154,#50,.T.);
#129=EDGE_CURVE('',#153,#144,#51,.T.);
#130=EDGE_CURVE('',#154,#143,#52,.T.);
#131=EDGE_CURVE('',#155,#155,#25,.T.);
#132=EDGE_CURVE('',#156,#156,#26,.T.);
#133=EDGE_CURVE('',#157,#157,#27,.T.);
#134=EDGE_CURVE('',#158,#158,#28,.T.);
#135=EDGE_CURVE('',#159,#159,#29,.T.);
#136=EDGE_CURVE('',#160,#160,#30,.T.);
#137=EDGE_CURVE('',#161,#161,#31,.T.);
#138=EDGE_CURVE('',#162,#162,#32,.T.);
#139=EDGE_CURVE('',#163,#163,#33,.T.);
#140=EDGE_CURVE('',#164,#164,#34,.T.);
#141=EDGE_CURVE('',#165,#165,#35,.T.);
#142=EDGE_CURVE('',#166,#166,#36,.T.);
#143=VERTEX_POINT('',#516);
#144=VERTEX_POINT('',#517);
#145=VERTEX_POINT('',#523);
#146=VERTEX_POINT('',#525);
#147=VERTEX_POINT('',#537);
#148=VERTEX_POINT('',#539);
#149=VERTEX_POINT('',#551);
#150=VERTEX_POINT('',#553);
#151=VERTEX_POINT('',#565);
#152=VERTEX_POINT('',#567);
#153=VERTEX_POINT('',#579);
#154=VERTEX_POINT('',#581);
#155=VERTEX_POINT('',#600);
#156=VERTEX_POINT('',#603);
#157=VERTEX_POINT('',#605);
#158=VERTEX_POINT('',#608);
#159=VERTEX_POINT('',#611);
#160=VERTEX_POINT('',#614);
#161=VERTEX_POINT('',#618);
#162=VERTEX_POINT('',#621);
#163=VERTEX_POINT('',#623);
#164=VERTEX_POINT('',#626);
#165=VERTEX_POINT('',#630);
#166=VERTEX_POINT('',#633);
#167=LINE('',#515,#173);
#168=LINE('',#524,#174);
#169=LINE('',#538,#175);
#170=LINE('',#552,#176);
#171=LINE('',#566,#177);
#172=LINE('',#580,#178);
#173=VECTOR('',#447,1000.);
#174=VECTOR('',#448,1000.);
#175=VECTOR('',#451,1000.);
#176=VECTOR('',#454,1000.);
#177=VECTOR('',#457,1000.);
#178=VECTOR('',#460,1000.);
#179=EDGE_LOOP('',(#53,#54,#55,#56));
#180=EDGE_LOOP('',(#57,#58,#59,#60));
#181=EDGE_LOOP('',(#61,#62,#63,#64));
#182=EDGE_LOOP('',(#65,#66,#67,#68));
#183=EDGE_LOOP('',(#69,#70,#71,#72));
#184=EDGE_LOOP('',(#73,#74,#75,#76));
#185=EDGE_LOOP('',(#77,#78,#79,#80,#81,#82));
#186=EDGE_LOOP('',(#83));
#187=EDGE_LOOP('',(#84));
#188=EDGE_LOOP('',(#85));
#189=EDGE_LOOP('',(#86));
#190=EDGE_LOOP('',(#87));
#191=EDGE_LOOP('',(#88));
#192=EDGE_LOOP('',(#89));
#193=EDGE_LOOP('',(#90));
#194=EDGE_LOOP('',(#91));
#195=EDGE_LOOP('',(#92));
#196=EDGE_LOOP('',(#93));
#197=EDGE_LOOP('',(#94,#95,#96,#97,#98,#99));
#198=EDGE_LOOP('',(#100));
#199=EDGE_LOOP('',(#101));
#200=EDGE_LOOP('',(#102));
#201=EDGE_LOOP('',(#103));
#202=EDGE_LOOP('',(#104));
#203=EDGE_LOOP('',(#105));
#204=EDGE_LOOP('',(#106));
#205=EDGE_LOOP('',(#107));
#206=EDGE_LOOP('',(#108));
#207=EDGE_LOOP('',(#109));
#208=EDGE_LOOP('',(#110));
#209=EDGE_LOOP('',(#111));
#210=EDGE_LOOP('',(#112));
#211=FACE_BOUND('',#179,.T.);
#212=FACE_BOUND('',#180,.T.);
#213=FACE_BOUND('',#181,.T.);
#214=FACE_BOUND('',#182,.T.);
#215=FACE_BOUND('',#183,.T.);
#216=FACE_BOUND('',#184,.T.);
#217=FACE_BOUND('',#185,.T.);
#218=FACE_BOUND('',#186,.T.);
#219=FACE_BOUND('',#187,.T.);
#220=FACE_BOUND('',#188,.T.);
#221=FACE_BOUND('',#189,.T.);
#222=FACE_BOUND('',#190,.T.);
#223=FACE_BOUND('',#191,.T.);
#224=FACE_BOUND('',#192,.T.);
#225=FACE_BOUND('',#193,.T.);
#226=FACE_BOUND('',#194,.T.);
#227=FACE_BOUND('',#195,.T.);
#228=FACE_BOUND('',#196,.T.);
#229=FACE_BOUND('',#197,.T.);
#230=FACE_BOUND('',#198,.T.);
#231=FACE_BOUND('',#199,.T.);
#232=FACE_BOUND('',#200,.T.);
#233=FACE_BOUND('',#201,.T.);
#234=FACE_BOUND('',#202,.T.);
#235=FACE_BOUND('',#203,.T.);
#236=FACE_BOUND('',#204,.T.);
#237=FACE_BOUND('',#205,.T.);
#238=FACE_BOUND('',#206,.T.);
#239=FACE_BOUND('',#207,.T.);
#240=FACE_BOUND('',#208,.T.);
#241=FACE_BOUND('',#209,.T.);
#242=FACE_BOUND('',#210,.T.);
#243=PLANE('',#412);
#244=PLANE('',#413);
#245=PLANE('',#414);
#246=PLANE('',#415);
#247=PLANE('',#416);
#248=PLANE('',#417);
#249=PLANE('',#420);
#250=PLANE('',#429);
#251=PLANE('',#437);
#252=PLANE('',#440);
#253=STYLED_ITEM('',(#272),#388);
#254=STYLED_ITEM('',(#273),#389);
#255=STYLED_ITEM('',(#274),#390);
#256=STYLED_ITEM('',(#275),#391);
#257=STYLED_ITEM('',(#276),#392);
#258=STYLED_ITEM('',(#277),#393);
#259=STYLED_ITEM('',(#278),#394);
#260=STYLED_ITEM('',(#279),#395);
#261=STYLED_ITEM('',(#280),#396);
#262=STYLED_ITEM('',(#281),#397);
#263=STYLED_ITEM('',(#282),#398);
#264=STYLED_ITEM('',(#283),#399);
#265=STYLED_ITEM('',(#284),#400);
#266=STYLED_ITEM('',(#285),#401);
#267=STYLED_ITEM('',(#286),#402);
#268=STYLED_ITEM('',(#287),#403);
#269=STYLED_ITEM('',(#288),#404);
#270=STYLED_ITEM('',(#289),#405);
#271=STYLED_ITEM('',(#290),#406);
#272=PRESENTATION_STYLE_ASSIGNMENT((#291));
#273=PRESENTATION_STYLE_ASSIGNMENT((#292));
#274=PRESENTATION_STYLE_ASSIGNMENT((#293));
#275=PRESENTATION_STYLE_ASSIGNMENT((#294));
#276=PRESENTATION_STYLE_ASSIGNMENT((#295));
#277=PRESENTATION_STYLE_ASSIGNMENT((#296));
#278=PRESENTATION_STYLE_ASSIGNMENT((#297));
#279=PRESENTATION_STYLE_ASSIGNMENT((#298));
#280=PRESENTATION_STYLE_ASSIGNMENT((#299));
#281=PRESENTATION_STYLE_ASSIGNMENT((#300));
#282=PRESENTATION_STYLE_ASSIGNMENT((#301));
#283=PRESENTATION_STYLE_ASSIGNMENT((#302));
#284=PRESENTATION_STYLE_ASSIGNMENT((#303));
#285=PRESENTATION_STYLE_ASSIGNMENT((#304));
#286=PRESENTATION_STYLE_ASSIGNMENT((#305));
#287=PRESENTATION_STYLE_ASSIGNMENT((#306));
#288=PRESENTATION_STYLE_ASSIGNMENT((#307));
#289=PRESENTATION_STYLE_ASSIGNMENT((#308));
#290=PRESENTATION_STYLE_ASSIGNMENT((#309));
#291=SURFACE_STYLE_USAGE(.BOTH.,#310);
#292=SURFACE_STYLE_USAGE(.BOTH.,#311);
#293=SURFACE_STYLE_USAGE(.BOTH.,#312);
#294=SURFACE_STYLE_USAGE(.BOTH.,#313);
#295=SURFACE_STYLE_USAGE(.BOTH.,#314);
#296=SURFACE_STYLE_USAGE(.BOTH.,#315);
#297=SURFACE_STYLE_USAGE(.BOTH.,#316);
#298=SURFACE_STYLE_USAGE(.BOTH.,#317);
#299=SURFACE_STYLE_USAGE(.BOTH.,#318);
#300=SURFACE_STYLE_USAGE(.BOTH.,#319);
#301=SURFACE_STYLE_USAGE(.BOTH.,#320);
#302=SURFACE_STYLE_USAGE(.BOTH.,#321);
#303=SURFACE_STYLE_USAGE(.BOTH.,#322);
#304=SURFACE_STYLE_USAGE(.BOTH.,#323);
#305=SURFACE_STYLE_USAGE(.BOTH.,#324);
#306=SURFACE_STYLE_USAGE(.BOTH.,#325);
#307=SURFACE_STYLE_USAGE(.BOTH.,#326);
#308=SURFACE_STYLE_USAGE(.BOTH.,#327);
#309=SURFACE_STYLE_USAGE(.BOTH.,#328);
#310=SURFACE_SIDE_STYLE('',(#329));
#311=SURFACE_SIDE_STYLE('',(#330));
#312=SURFACE_SIDE_STYLE('',(#331));
#313=SURFACE_SIDE_STYLE('',(#332));
#314=SURFACE_SIDE_STYLE('',(#333));
#315=SURFACE_SIDE_STYLE('',(#334));
#316=SURFACE_SIDE_STYLE('',(#335));
#317=SURFACE_SIDE_STYLE('',(#336));
#318=SURFACE_SIDE_STYLE('',(#337));
#319=SURFACE_SIDE_STYLE('',(#338));
#320=SURFACE_SIDE_STYLE('',(#339));
#321=SURFACE_SIDE_STYLE('',(#340));
#322=SURFACE_SIDE_STYLE('',(#341));
#323=SURFACE_SIDE_STYLE('',(#342));
#324=SURFACE_SIDE_STYLE('',(#343));
#325=SURFACE_SIDE_STYLE('',(#344));
#326=SURFACE_SIDE_STYLE('',(#345));
#327=SURFACE_SIDE_STYLE('',(#346));
#328=SURFACE_SIDE_STYLE('',(#347));
#329=SURFACE_STYLE_FILL_AREA(#348);
#330=SURFACE_STYLE_FILL_AREA(#349);
#331=SURFACE_STYLE_FILL_AREA(#350);
#332=SURFACE_STYLE_FILL_AREA(#351);
#333=SURFACE_STYLE_FILL_AREA(#352);
#334=SURFACE_STYLE_FILL_AREA(#353);
#335=SURFACE_STYLE_FILL_AREA(#354);
#336=SURFACE_STYLE_FILL_AREA(#355);
#337=SURFACE_STYLE_FILL_AREA(#356);
#338=SURFACE_STYLE_FILL_AREA(#357);
#339=SURFACE_STYLE_FILL_AREA(#358);
#340=SURFACE_STYLE_FILL_AREA(#359);
#341=SURFACE_STYLE_FILL_AREA(#360);
#342=SURFACE_STYLE_FILL_AREA(#361);
#343=SURFACE_STYLE_FILL_AREA(#362);
#344=SURFACE_STYLE_FILL_AREA(#363);
#345=SURFACE_STYLE_FILL_AREA(#364);
#346=SURFACE_STYLE_FILL_AREA(#365);
#347=SURFACE_STYLE_FILL_AREA(#366);
#348=FILL_AREA_STYLE('',(#367));
#349=FILL_AREA_STYLE('',(#368));
#350=FILL_AREA_STYLE('',(#369));
#351=FILL_AREA_STYLE('',(#370));
#352=FILL_AREA_STYLE('',(#371));
#353=FILL_AREA_STYLE('',(#372));
#354=FILL_AREA_STYLE('',(#373));
#355=FILL_AREA_STYLE('',(#374));
#356=FILL_AREA_STYLE('',(#375));
#357=FILL_AREA_STYLE('',(#376));
#358=FILL_AREA_STYLE('',(#377));
#359=FILL_AREA_STYLE('',(#378));
#360=FILL_AREA_STYLE('',(#379));
#361=FILL_AREA_STYLE('',(#380));
#362=FILL_AREA_STYLE('',(#381));
#363=FILL_AREA_STYLE('',(#382));
#364=FILL_AREA_STYLE('',(#383));
#365=FILL_AREA_STYLE('',(#384));
#366=FILL_AREA_STYLE('',(#385));
#367=FILL_AREA_STYLE_COLOUR('',#386);
#368=FILL_AREA_STYLE_COLOUR('',#386);
#369=FILL_AREA_STYLE_COLOUR('',#386);
#370=FILL_AREA_STYLE_COLOUR('',#386);
#371=FILL_AREA_STYLE_COLOUR('',#386);
#372=FILL_AREA_STYLE_COLOUR('',#386);
#373=FILL_AREA_STYLE_COLOUR('',#386);
#374=FILL_AREA_STYLE_COLOUR('',#386);
#375=FILL_AREA_STYLE_COLOUR('',#386);
#376=FILL_AREA_STYLE_COLOUR('',#387);
#377=FILL_AREA_STYLE_COLOUR('',#386);
#378=FILL_AREA_STYLE_COLOUR('',#386);
#379=FILL_AREA_STYLE_COLOUR('',#386);
#380=FILL_AREA_STYLE_COLOUR('',#387);
#381=FILL_AREA_STYLE_COLOUR('',#386);
#382=FILL_AREA_STYLE_COLOUR('',#386);
#383=FILL_AREA_STYLE_COLOUR('',#386);
#384=FILL_AREA_STYLE_COLOUR('',#386);
#385=FILL_AREA_STYLE_COLOUR('',#386);
#386=COLOUR_RGB('',0.639999985694885,0.670000016689301,0.689999997615814);
#387=COLOUR_RGB('',0.396078497171402,0.941176474094391,0.450980395078659);
#388=ADVANCED_FACE('',(#211),#243,.F.);
#389=ADVANCED_FACE('',(#212),#244,.F.);
#390=ADVANCED_FACE('',(#213),#245,.F.);
#391=ADVANCED_FACE('',(#214),#246,.F.);
#392=ADVANCED_FACE('',(#215),#247,.F.);
#393=ADVANCED_FACE('',(#216),#248,.F.);
#394=ADVANCED_FACE('',(#217,#218),#37,.T.);
#395=ADVANCED_FACE('',(#219,#220),#249,.F.);
#396=ADVANCED_FACE('',(#221,#222),#38,.T.);
#397=ADVANCED_FACE('',(#223,#224),#20,.T.);
#398=ADVANCED_FACE('',(#225,#226),#21,.T.);
#399=ADVANCED_FACE('',(#227,#228),#250,.T.);
#400=ADVANCED_FACE('',(#229,#230),#39,.T.);
#401=ADVANCED_FACE('',(#231,#232),#22,.T.);
#402=ADVANCED_FACE('',(#233,#234),#23,.T.);
#403=ADVANCED_FACE('',(#235,#236),#251,.F.);
#404=ADVANCED_FACE('',(#237,#238),#40,.T.);
#405=ADVANCED_FACE('',(#239,#240),#252,.T.);
#406=ADVANCED_FACE('',(#241,#242),#24,.F.);
#407=CLOSED_SHELL('',(#388,#389,#390,#391,#392,#393,#394,#395,#396,#397,
#398,#399,#400,#401,#402,#403,#404,#405,#406));
#408=MANIFOLD_SOLID_BREP('',#407);
#409=SHAPE_DEFINITION_REPRESENTATION(#641,#410);
#410=SHAPE_REPRESENTATION('Parte3',(#411),#636);
#411=AXIS2_PLACEMENT_3D('',#513,#443,#444);
#412=AXIS2_PLACEMENT_3D('',#514,#445,#446);
#413=AXIS2_PLACEMENT_3D('',#531,#449,#450);
#414=AXIS2_PLACEMENT_3D('',#545,#452,#453);
#415=AXIS2_PLACEMENT_3D('',#559,#455,#456);
#416=AXIS2_PLACEMENT_3D('',#573,#458,#459);
#417=AXIS2_PLACEMENT_3D('',#587,#461,#462);
#418=AXIS2_PLACEMENT_3D('',#598,#463,#464);
#419=AXIS2_PLACEMENT_3D('',#599,#465,#466);
#420=AXIS2_PLACEMENT_3D('',#601,#467,#468);
#421=AXIS2_PLACEMENT_3D('',#602,#469,#470);
#422=AXIS2_PLACEMENT_3D('',#604,#471,#472);
#423=AXIS2_PLACEMENT_3D('',#606,#473,#474);
#424=AXIS2_PLACEMENT_3D('',#607,#475,#476);
#425=AXIS2_PLACEMENT_3D('',#609,#477,#478);
#426=AXIS2_PLACEMENT_3D('',#610,#479,#480);
#427=AXIS2_PLACEMENT_3D('',#612,#481,#482);
#428=AXIS2_PLACEMENT_3D('',#613,#483,#484);
#429=AXIS2_PLACEMENT_3D('',#615,#485,#486);
#430=AXIS2_PLACEMENT_3D('',#616,#487,#488);
#431=AXIS2_PLACEMENT_3D('',#617,#489,#490);
#432=AXIS2_PLACEMENT_3D('',#619,#491,#492);
#433=AXIS2_PLACEMENT_3D('',#620,#493,#494);
#434=AXIS2_PLACEMENT_3D('',#622,#495,#496);
#435=AXIS2_PLACEMENT_3D('',#624,#497,#498);
#436=AXIS2_PLACEMENT_3D('',#625,#499,#500);
#437=AXIS2_PLACEMENT_3D('',#627,#501,#502);
#438=AXIS2_PLACEMENT_3D('',#628,#503,#504);
#439=AXIS2_PLACEMENT_3D('',#629,#505,#506);
#440=AXIS2_PLACEMENT_3D('',#631,#507,#508);
#441=AXIS2_PLACEMENT_3D('',#632,#509,#510);
#442=AXIS2_PLACEMENT_3D('',#634,#511,#512);
#443=DIRECTION('',(0.,0.,1.));
#444=DIRECTION('',(1.,0.,0.));
#445=DIRECTION('',(1.12673594905287E-15,-1.,0.));
#446=DIRECTION('',(1.,1.12673594905287E-15,0.));
#447=DIRECTION('',(0.,0.,-1.));
#448=DIRECTION('',(0.,0.,-1.));
#449=DIRECTION('',(0.866025403784438,-0.5,0.));
#450=DIRECTION('',(0.5,0.866025403784439,0.));
#451=DIRECTION('',(0.,0.,-1.));
#452=DIRECTION('',(0.86602540378444,0.499999999999998,0.));
#453=DIRECTION('',(-0.499999999999998,0.86602540378444,0.));
#454=DIRECTION('',(0.,0.,-1.));
#455=DIRECTION('',(7.5115729936858E-16,1.,0.));
#456=DIRECTION('',(-1.,7.5115729936858E-16,0.));
#457=DIRECTION('',(0.,0.,-1.));
#458=DIRECTION('',(-0.866025403784438,0.5,0.));
#459=DIRECTION('',(-0.5,-0.866025403784439,0.));
#460=DIRECTION('',(0.,0.,-1.));
#461=DIRECTION('',(-0.866025403784439,-0.5,0.));
#462=DIRECTION('',(0.5,-0.866025403784439,0.));
#463=DIRECTION('',(0.,0.,-1.));
#464=DIRECTION('',(-1.,0.,0.));
#465=DIRECTION('',(0.,0.,1.));
#466=DIRECTION('',(1.,0.,0.));
#467=DIRECTION('',(0.,0.,-1.));
#468=DIRECTION('',(-1.,0.,0.));
#469=DIRECTION('',(0.,0.,-1.));
#470=DIRECTION('',(0.,-1.,0.));
#471=DIRECTION('',(0.,0.,1.));
#472=DIRECTION('',(1.,0.,0.));
#473=DIRECTION('',(0.,0.,-1.));
#474=DIRECTION('',(-1.,0.,0.));
#475=DIRECTION('',(0.,0.,1.));
#476=DIRECTION('',(1.,0.,0.));
#477=DIRECTION('',(0.,0.,-1.));
#478=DIRECTION('',(-1.,0.,0.));
#479=DIRECTION('',(0.,0.,1.));
#480=DIRECTION('',(-1.,0.,0.));
#481=DIRECTION('',(0.,0.,-1.));
#482=DIRECTION('',(-1.,0.,0.));
#483=DIRECTION('',(0.,0.,1.));
#484=DIRECTION('',(1.,0.,0.));
#485=DIRECTION('',(0.,0.,1.));
#486=DIRECTION('',(1.,0.,0.));
#487=DIRECTION('',(0.,0.,1.));
#488=DIRECTION('',(1.,0.,0.));
#489=DIRECTION('',(0.,0.,1.));
#490=DIRECTION('',(1.,0.,0.));
#491=DIRECTION('',(0.,0.,-1.));
#492=DIRECTION('',(-1.,0.,0.));
#493=DIRECTION('',(0.,0.,1.));
#494=DIRECTION('',(1.,0.,0.));
#495=DIRECTION('',(0.,0.,-1.));
#496=DIRECTION('',(-1.,0.,0.));
#497=DIRECTION('',(0.,0.,-1.));
#498=DIRECTION('',(-1.,0.,0.));
#499=DIRECTION('',(0.,0.,1.));
#500=DIRECTION('',(1.,0.,0.));
#501=DIRECTION('',(0.,0.,1.));
#502=DIRECTION('',(1.,0.,0.));
#503=DIRECTION('',(0.,0.,1.));
#504=DIRECTION('',(1.,0.,0.));
#505=DIRECTION('',(0.,0.,1.));
#506=DIRECTION('',(1.,0.,0.));
#507=DIRECTION('',(0.,0.,-1.));
#508=DIRECTION('',(-1.,0.,0.));
#509=DIRECTION('',(0.,0.,-1.));
#510=DIRECTION('',(-1.,0.,0.));
#511=DIRECTION('',(0.,0.,-1.));
#512=DIRECTION('',(0.,-1.,0.));
#513=CARTESIAN_POINT('',(0.,0.,0.));
#514=CARTESIAN_POINT('',(2.3094010767585,4.,1.75));
#515=CARTESIAN_POINT('',(2.3094010767585,4.,1.75));
#516=CARTESIAN_POINT('',(2.30940107675849,4.,1.36386689663236));
#517=CARTESIAN_POINT('',(2.3094010767585,4.,-1.36386689663236));
#518=CARTESIAN_POINT('',(-2.30940107675852,3.99999999999999,-1.36386689663238));
#519=CARTESIAN_POINT('',(-1.55799487225813,3.99999999999999,-1.5807791838519));
#520=CARTESIAN_POINT('',(-0.00101698594692269,3.99999999999999,-1.86217807384605));
#521=CARTESIAN_POINT('',(1.56279163784144,4.,-1.5793944769015));
#522=CARTESIAN_POINT('',(2.30940107675849,4.,-1.36386689663236));
#523=CARTESIAN_POINT('',(-2.30940107675851,3.99999999999999,-1.36386689663236));
#524=CARTESIAN_POINT('',(-2.30940107675851,3.99999999999999,1.75));
#525=CARTESIAN_POINT('',(-2.30940107675851,3.99999999999999,1.36386689663236));
#526=CARTESIAN_POINT('',(-2.30940107675851,3.99999999999999,1.36386689663238));
#527=CARTESIAN_POINT('',(-1.55799487225813,3.99999999999999,1.5807791838519));
#528=CARTESIAN_POINT('',(-0.00101698594692247,3.99999999999999,1.86217807384605));
#529=CARTESIAN_POINT('',(1.56279163784144,3.99999999999999,1.5793944769015));
#530=CARTESIAN_POINT('',(2.30940107675849,4.,1.36386689663237));
#531=CARTESIAN_POINT('',(-2.30940107675851,3.99999999999999,1.75));
#532=CARTESIAN_POINT('',(-2.30940107675845,4.0000000000001,-1.36386689663323));
#533=CARTESIAN_POINT('',(-2.68648206697498,3.34687656637667,-1.58157470784105));
#534=CARTESIAN_POINT('',(-3.4599256439572,2.00723299425567,-1.86055180250106));
#535=CARTESIAN_POINT('',(-4.24125124245801,0.6539373603981,-1.58184601676553));
#536=CARTESIAN_POINT('',(-4.61880215351704,-6.16305581294894E-14,-1.3638668966328));
#537=CARTESIAN_POINT('',(-4.618802153517,-3.03576608295941E-15,-1.36386689663236));
#538=CARTESIAN_POINT('',(-4.61880215351701,5.20417042793042E-15,1.75));
#539=CARTESIAN_POINT('',(-4.618802153517,0.,1.36386689663236));
#540=CARTESIAN_POINT('',(-2.30940107675845,4.0000000000001,1.36386689663323));
#541=CARTESIAN_POINT('',(-2.68648206697498,3.34687656637667,1.58157470784105));
#542=CARTESIAN_POINT('',(-3.45992564395719,2.00723299425567,1.86055180250106));
#543=CARTESIAN_POINT('',(-4.24125124245801,0.653937360398103,1.58184601676553));
#544=CARTESIAN_POINT('',(-4.61880215351704,-5.81513396929597E-14,1.3638668966328));
#545=CARTESIAN_POINT('',(-4.618802153517,5.37912242714789E-15,1.75));
#546=CARTESIAN_POINT('',(-4.61880215351706,1.04728465506973E-13,-1.36386689663323));
#547=CARTESIAN_POINT('',(-4.24172116330053,-0.653123433623322,-1.58157470784105));
#548=CARTESIAN_POINT('',(-3.46827758631831,-1.99276700574433,-1.86055180250106));
#549=CARTESIAN_POINT('',(-2.6869519878175,-3.34606263960191,-1.58184601676552));
#550=CARTESIAN_POINT('',(-2.30940107675847,-4.00000000000007,-1.3638668966328));
#551=CARTESIAN_POINT('',(-2.30940107675849,-4.,-1.36386689663236));
#552=CARTESIAN_POINT('',(-2.30940107675851,-4.,1.75));
#553=CARTESIAN_POINT('',(-2.30940107675849,-4.,1.36386689663236));
#554=CARTESIAN_POINT('',(-4.61880215351706,1.07266919852318E-13,1.36386689663323));
#555=CARTESIAN_POINT('',(-4.24172116330053,-0.65312343362332,1.58157470784105));
#556=CARTESIAN_POINT('',(-3.46827758631831,-1.99276700574432,1.86055180250107));
#557=CARTESIAN_POINT('',(-2.6869519878175,-3.3460626396019,1.58184601676553));
#558=CARTESIAN_POINT('',(-2.30940107675847,-4.00000000000007,1.3638668966328));
#559=CARTESIAN_POINT('',(-2.30940107675851,-4.,1.75));
#560=CARTESIAN_POINT('',(-2.3094010767585,-4.,-1.36386689663238));
#561=CARTESIAN_POINT('',(-1.55799487225811,-4.,-1.5807791838519));
#562=CARTESIAN_POINT('',(-0.00101698594690849,-4.,-1.86217807384604));
#563=CARTESIAN_POINT('',(1.56279163784145,-4.,-1.5793944769015));
#564=CARTESIAN_POINT('',(2.3094010767585,-4.,-1.36386689663236));
#565=CARTESIAN_POINT('',(2.3094010767585,-3.99999999999999,-1.36386689663236));
#566=CARTESIAN_POINT('',(2.3094010767585,-4.,1.75));
#567=CARTESIAN_POINT('',(2.3094010767585,-3.99999999999999,1.36386689663236));
#568=CARTESIAN_POINT('',(-2.3094010767585,-4.,1.36386689663238));
#569=CARTESIAN_POINT('',(-1.55799487225811,-4.,1.5807791838519));
#570=CARTESIAN_POINT('',(-0.0010169859469138,-4.,1.86217807384604));
#571=CARTESIAN_POINT('',(1.56279163784145,-4.,1.5793944769015));
#572=CARTESIAN_POINT('',(2.3094010767585,-4.,1.36386689663236));
#573=CARTESIAN_POINT('',(2.3094010767585,-4.,1.75));
#574=CARTESIAN_POINT('',(2.30940107675844,-4.0000000000001,-1.36386689663323));
#575=CARTESIAN_POINT('',(2.68648206697498,-3.34687656637668,-1.58157470784105));
#576=CARTESIAN_POINT('',(3.45992564395719,-2.00723299425567,-1.86055180250107));
#577=CARTESIAN_POINT('',(4.24125124245801,-0.653937360398101,-1.58184601676553));
#578=CARTESIAN_POINT('',(4.61880215351704,6.22347697263869E-14,-1.3638668966328));
#579=CARTESIAN_POINT('',(4.618802153517,0.,-1.36386689663236));
#580=CARTESIAN_POINT('',(4.618802153517,-4.33680868994202E-15,1.75));
#581=CARTESIAN_POINT('',(4.618802153517,-4.33680868994202E-15,1.36386689663236));
#582=CARTESIAN_POINT('',(2.30940107675844,-4.0000000000001,1.36386689663323));
#583=CARTESIAN_POINT('',(2.68648206697498,-3.34687656637668,1.58157470784105));
#584=CARTESIAN_POINT('',(3.45992564395719,-2.00723299425568,1.86055180250107));
#585=CARTESIAN_POINT('',(4.241251242458,-0.653937360398104,1.58184601676553));
#586=CARTESIAN_POINT('',(4.61880215351704,5.85919411685488E-14,1.36386689663281));
#587=CARTESIAN_POINT('',(4.618802153517,-4.51176068915947E-15,1.75));
#588=CARTESIAN_POINT('',(4.61880215351706,-1.09668611463905E-13,-1.36386689663323));
#589=CARTESIAN_POINT('',(4.24172116330052,0.653123433623316,-1.58157470784105));
#590=CARTESIAN_POINT('',(3.46827758631831,1.99276700574432,-1.86055180250107));
#591=CARTESIAN_POINT('',(2.68695198781749,3.3460626396019,-1.58184601676553));
#592=CARTESIAN_POINT('',(2.30940107675846,4.00000000000006,-1.36386689663281));
#593=CARTESIAN_POINT('',(4.61880215351706,-1.12490509999489E-13,1.36386689663323));
#594=CARTESIAN_POINT('',(4.24172116330052,0.653123433623314,1.58157470784105));
#595=CARTESIAN_POINT('',(3.46827758631831,1.99276700574432,1.86055180250107));
#596=CARTESIAN_POINT('',(2.68695198781749,3.3460626396019,1.58184601676553));
#597=CARTESIAN_POINT('',(2.30940107675846,4.00000000000006,1.36386689663281));
#598=CARTESIAN_POINT('',(0.,0.,1.75));
#599=CARTESIAN_POINT('',(0.,0.,1.75));
#600=CARTESIAN_POINT('',(3.95,0.,1.75));
#601=CARTESIAN_POINT('',(0.,0.,5.75));
#602=CARTESIAN_POINT('',(0.,0.,5.75));
#603=CARTESIAN_POINT('',(0.,-1.,5.75));
#604=CARTESIAN_POINT('',(0.,0.,5.75));
#605=CARTESIAN_POINT('',(1.95,0.,5.75));
#606=CARTESIAN_POINT('',(0.,0.,5.75));
#607=CARTESIAN_POINT('',(0.,0.,5.2));
#608=CARTESIAN_POINT('',(2.5,0.,5.2));
#609=CARTESIAN_POINT('',(0.,0.,5.75));
#610=CARTESIAN_POINT('',(0.,0.,2.15));
#611=CARTESIAN_POINT('',(-2.5,0.,2.15));
#612=CARTESIAN_POINT('',(0.,0.,5.75));
#613=CARTESIAN_POINT('',(0.,0.,1.75));
#614=CARTESIAN_POINT('',(2.5,0.,1.75));
#615=CARTESIAN_POINT('',(0.,0.,1.75));
#616=CARTESIAN_POINT('',(0.,0.,-1.75));
#617=CARTESIAN_POINT('',(0.,0.,-1.75));
#618=CARTESIAN_POINT('',(3.95,0.,-1.75));
#619=CARTESIAN_POINT('',(0.,0.,5.75));
#620=CARTESIAN_POINT('',(0.,0.,-5.2));
#621=CARTESIAN_POINT('',(2.5,0.,-5.2));
#622=CARTESIAN_POINT('',(0.,0.,-2.15));
#623=CARTESIAN_POINT('',(-2.5,0.,-2.15));
#624=CARTESIAN_POINT('',(0.,0.,5.75));
#625=CARTESIAN_POINT('',(0.,0.,-1.75));
#626=CARTESIAN_POINT('',(2.5,0.,-1.75));
#627=CARTESIAN_POINT('',(0.,0.,-1.75));
#628=CARTESIAN_POINT('',(0.,0.,-5.75));
#629=CARTESIAN_POINT('',(0.,0.,-5.75));
#630=CARTESIAN_POINT('',(1.95,0.,-5.75));
#631=CARTESIAN_POINT('',(0.,0.,-5.75));
#632=CARTESIAN_POINT('',(0.,0.,-5.75));
#633=CARTESIAN_POINT('',(-1.,0.,-5.75));
#634=CARTESIAN_POINT('',(0.,0.,5.75));
#635=MECHANICAL_DESIGN_GEOMETRIC_PRESENTATION_REPRESENTATION('',(#253,#254,
#255,#256,#257,#258,#259,#260,#261,#262,#263,#264,#265,#266,#267,#268,#269,
#270,#271),#636);
#636=(
GEOMETRIC_REPRESENTATION_CONTEXT(3)
GLOBAL_UNCERTAINTY_ASSIGNED_CONTEXT((#637))
GLOBAL_UNIT_ASSIGNED_CONTEXT((#640,#639,#638))
REPRESENTATION_CONTEXT('Parte3','TOP_LEVEL_ASSEMBLY_PART')
);
#637=UNCERTAINTY_MEASURE_WITH_UNIT(LENGTH_MEASURE(0.005),#640,
'DISTANCE_ACCURACY_VALUE','Maximum Tolerance applied to model');
#638=(
NAMED_UNIT(*)
SI_UNIT($,.STERADIAN.)
SOLID_ANGLE_UNIT()
);
#639=(
NAMED_UNIT(*)
PLANE_ANGLE_UNIT()
SI_UNIT($,.RADIAN.)
);
#640=(
LENGTH_UNIT()
NAMED_UNIT(*)
SI_UNIT(.MILLI.,.METRE.)
);
#641=PRODUCT_DEFINITION_SHAPE('','',#642);
#642=PRODUCT_DEFINITION('','',#644,#643);
#643=PRODUCT_DEFINITION_CONTEXT('',#650,'design');
#644=PRODUCT_DEFINITION_FORMATION_WITH_SPECIFIED_SOURCE('','',#646,
 .NOT_KNOWN.);
#645=PRODUCT_RELATED_PRODUCT_CATEGORY('','',(#646));
#646=PRODUCT('Parte3','Parte3','Parte3',(#648));
#647=PRODUCT_CATEGORY('','');
#648=PRODUCT_CONTEXT('',#650,'mechanical');
#649=APPLICATION_PROTOCOL_DEFINITION('international standard',
'automotive_design',2010,#650);
#650=APPLICATION_CONTEXT(
'core data for automotive mechanical design processes');
ENDSEC;
END-ISO-10303-21;
