ISO-10303-21;
HEADER;
FILE_DESCRIPTION(( 'OX.22.04.00.stp' ), '1');
FILE_NAME( 'OX.22.04.00.stp', '2021-03-05T16:08:24',( 'Sopra'),('sopra-pneumatic.com'), 'SwSTEP 2.0','SolidWorks 2009','' );
FILE_SCHEMA( ( 'CONFIG_CONTROL_DESIGN' ) );
ENDSEC;
DATA;
#1 = DESIGN_CONTEXT( '', #27, 'design' );
#2 = APPLICATION_PROTOCOL_DEFINITION( 'international standard', 'config_control_design', 1994, #27 );
#3 = PRODUCT_CATEGORY_RELATIONSHIP( 'NONE', 'NONE', #28, #29 );
#4 = DATE_AND_TIME( #30, #31 );
#5 = DATE_TIME_ROLE( 'creation_date' );
#6 = DATE_TIME_ROLE( 'classification_date' );
#7 = PERSON_AND_ORGANIZATION_ROLE( 'creator' );
#8 = PERSON_AND_ORGANIZATION_ROLE( 'design_supplier' );
#9 = PERSON_AND_ORGANIZATION_ROLE( 'classification_officer' );
#10 = PERSON_AND_ORGANIZATION_ROLE( 'design_owner' );
#11 = APPROVAL_PERSON_ORGANIZATION( #32, #33, #34 );
#12 = APPROVAL_DATE_TIME( #4, #33 );
#13 = CC_DESIGN_APPROVAL( #33, ( #35, #36, #37 ) );
#14 = CC_DESIGN_DATE_AND_TIME_ASSIGNMENT( #4, #5, ( #37 ) );
#15 = CC_DESIGN_DATE_AND_TIME_ASSIGNMENT( #4, #6, ( #35 ) );
#16 = CC_DESIGN_PERSON_AND_ORGANIZATION_ASSIGNMENT( #32, #10, ( #38 ) );
#17 = CC_DESIGN_PERSON_AND_ORGANIZATION_ASSIGNMENT( #32, #7, ( #37 ) );
#18 = CC_DESIGN_PERSON_AND_ORGANIZATION_ASSIGNMENT( #32, #7, ( #36 ) );
#19 = CC_DESIGN_PERSON_AND_ORGANIZATION_ASSIGNMENT( #32, #8, ( #36 ) );
#20 = CC_DESIGN_SECURITY_CLASSIFICATION( #35, ( #36 ) );
#21 = CC_DESIGN_PERSON_AND_ORGANIZATION_ASSIGNMENT( #32, #9, ( #35 ) );
#22 = SHAPE_DEFINITION_REPRESENTATION( #39, #40 );
#23 =  ( GEOMETRIC_REPRESENTATION_CONTEXT( 3 )GLOBAL_UNCERTAINTY_ASSIGNED_CONTEXT( ( #43 ) )GLOBAL_UNIT_ASSIGNED_CONTEXT( ( #45, #46, #47 ) )REPRESENTATION_CONTEXT( 'NONE', 'WORKSPACE' ) );
#27 = APPLICATION_CONTEXT( 'configuration controlled 3D designs of mechanical parts and assemblies' );
#28 = PRODUCT_CATEGORY( 'part', 'NONE' );
#29 = PRODUCT_RELATED_PRODUCT_CATEGORY( 'detail', ' ', ( #38 ) );
#30 = CALENDAR_DATE( 2021, 5, 2 );
#31 = LOCAL_TIME( 15, 27, 20.0000000000000, #49 );
#32 = PERSON_AND_ORGANIZATION( #50, #51 );
#33 = APPROVAL( #52, 'SOLID MODEL' );
#34 = APPROVAL_ROLE( 'APPROVED' );
#35 = SECURITY_CLASSIFICATION( '', '', #53 );
#36 = PRODUCT_DEFINITION_FORMATION_WITH_SPECIFIED_SOURCE( ' ', 'NONE', #38, .NOT_KNOWN. );
#37 = PRODUCT_DEFINITION( 'NONE', 'NONE', #36, #1 );
#38 = PRODUCT( '_SR-04LL 706.0021.040.10', '_SR-04LL 706.0021.040.10', 'PART-_SR-04LL 706.0021.040.10-DESC', ( #54 ) );
#39 = PRODUCT_DEFINITION_SHAPE( 'NONE', 'NONE', #37 );
#40 = ADVANCED_BREP_SHAPE_REPRESENTATION( '_SR-04LL 706.0021.040.10', ( #55, #56 ), #23 );
#43 = UNCERTAINTY_MEASURE_WITH_UNIT( LENGTH_MEASURE( 0.00100000000000000 ), #45, '', '' );
#45 =  ( CONVERSION_BASED_UNIT( 'MILLIMETRE', #59 )LENGTH_UNIT(  )NAMED_UNIT( #62 ) );
#46 =  ( NAMED_UNIT( #64 )PLANE_ANGLE_UNIT(  )SI_UNIT( $, .RADIAN. ) );
#47 =  ( NAMED_UNIT( #64 )SI_UNIT( $, .STERADIAN. )SOLID_ANGLE_UNIT(  ) );
#49 = COORDINATED_UNIVERSAL_TIME_OFFSET( 1, 0, .AHEAD. );
#50 = PERSON( '', 'UNSPECIFIED', $, $, $, $ );
#51 = ORGANIZATION( 'UNSPECIFIED', 'UNSPECIFIED', 'UNSPECIFIED' );
#52 = APPROVAL_STATUS( 'approved' );
#53 = SECURITY_CLASSIFICATION_LEVEL( 'unclassified' );
#54 = MECHANICAL_CONTEXT( '', #27, 'mechanical' );
#55 = MANIFOLD_SOLID_BREP( '_SR-04LL 706.0021.040.10', #70 );
#56 = AXIS2_PLACEMENT_3D( '', #71, #72, #73 );
#59 = LENGTH_MEASURE_WITH_UNIT( LENGTH_MEASURE( 1.00000000000000 ), #74 );
#62 = DIMENSIONAL_EXPONENTS( 1.00000000000000, 0.000000000000000, 0.000000000000000, 0.000000000000000, 0.000000000000000, 0.000000000000000, 0.000000000000000 );
#64 = DIMENSIONAL_EXPONENTS( 0.000000000000000, 0.000000000000000, 0.000000000000000, 0.000000000000000, 0.000000000000000, 0.000000000000000, 0.000000000000000 );
#70 = CLOSED_SHELL( '', ( #75, #76, #77, #78, #79, #80, #81, #82, #83, #84, #85, #86 ) );
#71 = CARTESIAN_POINT( '', ( 0.000000000000000, 0.000000000000000, 0.000000000000000 ) );
#72 = DIRECTION( '', ( 0.000000000000000, 0.000000000000000, 1.00000000000000 ) );
#73 = DIRECTION( '', ( 1.00000000000000, 0.000000000000000, 0.000000000000000 ) );
#74 =  ( LENGTH_UNIT(  )NAMED_UNIT( #62 )SI_UNIT( .MILLI., .METRE. ) );
#75 = ADVANCED_FACE( '', ( #88, #89 ), #90, .T. );
#76 = ADVANCED_FACE( '', ( #91, #92 ), #93, .F. );
#77 = ADVANCED_FACE( '', ( #94, #95, #96 ), #97, .F. );
#78 = ADVANCED_FACE( '', ( #98, #99 ), #100, .F. );
#79 = ADVANCED_FACE( '', ( #101, #102 ), #103, .F. );
#80 = ADVANCED_FACE( '', ( #104, #105 ), #106, .T. );
#81 = ADVANCED_FACE( '', ( #107, #108 ), #109, .T. );
#82 = ADVANCED_FACE( '', ( #110, #111 ), #112, .T. );
#83 = ADVANCED_FACE( '', ( #113, #114 ), #115, .F. );
#84 = ADVANCED_FACE( '', ( #116, #117 ), #118, .T. );
#85 = ADVANCED_FACE( '', ( #119, #120 ), #121, .T. );
#86 = ADVANCED_FACE( '', ( #122, #123 ), #124, .T. );
#88 = FACE_BOUND( '', #125, .T. );
#89 = FACE_OUTER_BOUND( '', #126, .T. );
#90 = PLANE( '', #127 );
#91 = FACE_OUTER_BOUND( '', #128, .T. );
#92 = FACE_BOUND( '', #129, .T. );
#93 = CONICAL_SURFACE( '', #130, 2.00000000000000, 0.0817008337000000 );
#94 = FACE_BOUND( '', #131, .T. );
#95 = FACE_OUTER_BOUND( '', #132, .T. );
#96 = FACE_OUTER_BOUND( '', #133, .T. );
#97 = TOROIDAL_SURFACE( '', #134, 1.88600000000000, 0.214000000000000 );
#98 = FACE_OUTER_BOUND( '', #135, .T. );
#99 = FACE_OUTER_BOUND( '', #136, .T. );
#100 = CYLINDRICAL_SURFACE( '', #137, 2.00000000000000 );
#101 = FACE_OUTER_BOUND( '', #138, .T. );
#102 = FACE_BOUND( '', #139, .T. );
#103 = CONICAL_SURFACE( '', #140, 2.00000000000000, 0.0674650245000000 );
#104 = FACE_OUTER_BOUND( '', #141, .T. );
#105 = FACE_BOUND( '', #142, .T. );
#106 = PLANE( '', #143 );
#107 = FACE_OUTER_BOUND( '', #144, .T. );
#108 = FACE_BOUND( '', #145, .T. );
#109 = CONICAL_SURFACE( '', #146, 2.12000000000000, 0.401228799000000 );
#110 = FACE_OUTER_BOUND( '', #147, .T. );
#111 = FACE_OUTER_BOUND( '', #148, .T. );
#112 = CYLINDRICAL_SURFACE( '', #149, 2.40000000000000 );
#113 = FACE_OUTER_BOUND( '', #150, .T. );
#114 = FACE_OUTER_BOUND( '', #151, .T. );
#115 = TOROIDAL_SURFACE( '', #152, 2.51200000000000, 0.212000000000000 );
#116 = FACE_OUTER_BOUND( '', #153, .T. );
#117 = FACE_OUTER_BOUND( '', #154, .T. );
#118 = CYLINDRICAL_SURFACE( '', #155, 2.30000000000000 );
#119 = FACE_BOUND( '', #156, .T. );
#120 = FACE_OUTER_BOUND( '', #157, .T. );
#121 = CONICAL_SURFACE( '', #158, 2.30000000000000, 0.0817008337000000 );
#122 = FACE_OUTER_BOUND( '', #159, .T. );
#123 = FACE_OUTER_BOUND( '', #160, .T. );
#124 = TOROIDAL_SURFACE( '', #161, 2.08608033100000, 0.120000000000000 );
#125 = EDGE_LOOP( '', ( #162 ) );
#126 = EDGE_LOOP( '', ( #163 ) );
#127 = AXIS2_PLACEMENT_3D( '', #164, #165, #166 );
#128 = EDGE_LOOP( '', ( #167 ) );
#129 = EDGE_LOOP( '', ( #168 ) );
#130 = AXIS2_PLACEMENT_3D( '', #169, #170, #171 );
#131 = VERTEX_LOOP( '', #172 );
#132 = EDGE_LOOP( '', ( #173 ) );
#133 = EDGE_LOOP( '', ( #174 ) );
#134 = AXIS2_PLACEMENT_3D( '', #175, #176, #177 );
#135 = EDGE_LOOP( '', ( #178 ) );
#136 = EDGE_LOOP( '', ( #179 ) );
#137 = AXIS2_PLACEMENT_3D( '', #180, #181, #182 );
#138 = EDGE_LOOP( '', ( #183 ) );
#139 = EDGE_LOOP( '', ( #184 ) );
#140 = AXIS2_PLACEMENT_3D( '', #185, #186, #187 );
#141 = EDGE_LOOP( '', ( #188 ) );
#142 = EDGE_LOOP( '', ( #189 ) );
#143 = AXIS2_PLACEMENT_3D( '', #190, #191, #192 );
#144 = EDGE_LOOP( '', ( #193 ) );
#145 = EDGE_LOOP( '', ( #194 ) );
#146 = AXIS2_PLACEMENT_3D( '', #195, #196, #197 );
#147 = EDGE_LOOP( '', ( #198 ) );
#148 = EDGE_LOOP( '', ( #199 ) );
#149 = AXIS2_PLACEMENT_3D( '', #200, #201, #202 );
#150 = EDGE_LOOP( '', ( #203 ) );
#151 = EDGE_LOOP( '', ( #204 ) );
#152 = AXIS2_PLACEMENT_3D( '', #205, #206, #207 );
#153 = EDGE_LOOP( '', ( #208 ) );
#154 = EDGE_LOOP( '', ( #209 ) );
#155 = AXIS2_PLACEMENT_3D( '', #210, #211, #212 );
#156 = EDGE_LOOP( '', ( #213 ) );
#157 = EDGE_LOOP( '', ( #214 ) );
#158 = AXIS2_PLACEMENT_3D( '', #215, #216, #217 );
#159 = EDGE_LOOP( '', ( #218 ) );
#160 = EDGE_LOOP( '', ( #219 ) );
#161 = AXIS2_PLACEMENT_3D( '', #220, #221, #222 );
#162 = ORIENTED_EDGE( '', *, *, #223, .T. );
#163 = ORIENTED_EDGE( '', *, *, #224, .F. );
#164 = CARTESIAN_POINT( '', ( -1.15196480826585E-16, 2.08608033103664, 0.000000000000000 ) );
#165 = DIRECTION( '', ( -1.00000000000000, 0.000000000000000, 0.000000000000000 ) );
#166 = DIRECTION( '', ( 0.000000000000000, 0.000000000000000, 1.00000000000000 ) );
#167 = ORIENTED_EDGE( '', *, *, #225, .T. );
#168 = ORIENTED_EDGE( '', *, *, #223, .F. );
#169 = CARTESIAN_POINT( '', ( 0.000000000000000, 0.000000000000000, 0.000000000000000 ) );
#170 = DIRECTION( '', ( 1.00000000000000, -0.000000000000000, -0.000000000000000 ) );
#171 = DIRECTION( '', ( -0.000000000000000, 0.000000000000000, -1.00000000000000 ) );
#172 = VERTEX_POINT( '', #226 );
#173 = ORIENTED_EDGE( '', *, *, #225, .F. );
#174 = ORIENTED_EDGE( '', *, *, #227, .T. );
#175 = CARTESIAN_POINT( '', ( 1.23000000000000, 0.000000000000000, 0.000000000000000 ) );
#176 = DIRECTION( '', ( 1.00000000000000, 0.000000000000000, -0.000000000000000 ) );
#177 = DIRECTION( '', ( -0.000000000000000, 0.000000000000000, -1.00000000000000 ) );
#178 = ORIENTED_EDGE( '', *, *, #228, .T. );
#179 = ORIENTED_EDGE( '', *, *, #227, .F. );
#180 = CARTESIAN_POINT( '', ( 6.00000000000000, 0.000000000000000, 0.000000000000000 ) );
#181 = DIRECTION( '', ( -1.00000000000000, -0.000000000000000, 0.000000000000000 ) );
#182 = DIRECTION( '', ( -0.000000000000000, 0.000000000000000, -1.00000000000000 ) );
#183 = ORIENTED_EDGE( '', *, *, #229, .T. );
#184 = ORIENTED_EDGE( '', *, *, #228, .F. );
#185 = CARTESIAN_POINT( '', ( 5.11200000000000, 0.000000000000000, 0.000000000000000 ) );
#186 = DIRECTION( '', ( 1.00000000000000, -0.000000000000000, -0.000000000000000 ) );
#187 = DIRECTION( '', ( -0.000000000000000, 0.000000000000000, -1.00000000000000 ) );
#188 = ORIENTED_EDGE( '', *, *, #230, .T. );
#189 = ORIENTED_EDGE( '', *, *, #229, .F. );
#190 = CARTESIAN_POINT( '', ( 6.00000000000000, 2.06000000000000, 0.000000000000000 ) );
#191 = DIRECTION( '', ( 1.00000000000000, 0.000000000000000, -0.000000000000000 ) );
#192 = DIRECTION( '', ( -0.000000000000000, 0.000000000000000, -1.00000000000000 ) );
#193 = ORIENTED_EDGE( '', *, *, #231, .T. );
#194 = ORIENTED_EDGE( '', *, *, #230, .F. );
#195 = CARTESIAN_POINT( '', ( 6.00000000000000, 0.000000000000000, 0.000000000000000 ) );
#196 = DIRECTION( '', ( -1.00000000000000, 0.000000000000000, -0.000000000000000 ) );
#197 = DIRECTION( '', ( 0.000000000000000, 0.000000000000000, 1.00000000000000 ) );
#198 = ORIENTED_EDGE( '', *, *, #232, .T. );
#199 = ORIENTED_EDGE( '', *, *, #231, .F. );
#200 = CARTESIAN_POINT( '', ( 6.00000000000000, 0.000000000000000, 0.000000000000000 ) );
#201 = DIRECTION( '', ( -1.00000000000000, -0.000000000000000, 0.000000000000000 ) );
#202 = DIRECTION( '', ( -0.000000000000000, 0.000000000000000, -1.00000000000000 ) );
#203 = ORIENTED_EDGE( '', *, *, #232, .F. );
#204 = ORIENTED_EDGE( '', *, *, #233, .T. );
#205 = CARTESIAN_POINT( '', ( 2.64000000000000, 0.000000000000000, 0.000000000000000 ) );
#206 = DIRECTION( '', ( 1.00000000000000, 0.000000000000000, -0.000000000000000 ) );
#207 = DIRECTION( '', ( -0.000000000000000, 0.000000000000000, -1.00000000000000 ) );
#208 = ORIENTED_EDGE( '', *, *, #234, .T. );
#209 = ORIENTED_EDGE( '', *, *, #233, .F. );
#210 = CARTESIAN_POINT( '', ( 6.00000000000000, 0.000000000000000, 0.000000000000000 ) );
#211 = DIRECTION( '', ( -1.00000000000000, -0.000000000000000, 0.000000000000000 ) );
#212 = DIRECTION( '', ( -0.000000000000000, 0.000000000000000, -1.00000000000000 ) );
#213 = ORIENTED_EDGE( '', *, *, #235, .T. );
#214 = ORIENTED_EDGE( '', *, *, #234, .F. );
#215 = CARTESIAN_POINT( '', ( 1.26209213218225, 0.000000000000000, 0.000000000000000 ) );
#216 = DIRECTION( '', ( 1.00000000000000, -0.000000000000000, -0.000000000000000 ) );
#217 = DIRECTION( '', ( -0.000000000000000, 0.000000000000000, -1.00000000000000 ) );
#218 = ORIENTED_EDGE( '', *, *, #224, .T. );
#219 = ORIENTED_EDGE( '', *, *, #235, .F. );
#220 = CARTESIAN_POINT( '', ( 0.119999999999999, 0.000000000000000, 0.000000000000000 ) );
#221 = DIRECTION( '', ( 1.00000000000000, 0.000000000000000, -0.000000000000000 ) );
#222 = DIRECTION( '', ( -0.000000000000000, 0.000000000000000, -1.00000000000000 ) );
#223 = EDGE_CURVE( '', #236, #236, #237, .T. );
#224 = EDGE_CURVE( '', #238, #238, #239, .T. );
#225 = EDGE_CURVE( '', #240, #240, #241, .T. );
#226 = CARTESIAN_POINT( '', ( 1.23000000000000, 0.000000000000000, -2.10000000000000 ) );
#227 = EDGE_CURVE( '', #242, #242, #243, .T. );
#228 = EDGE_CURVE( '', #244, #244, #245, .T. );
#229 = EDGE_CURVE( '', #246, #246, #247, .T. );
#230 = EDGE_CURVE( '', #248, #248, #249, .T. );
#231 = EDGE_CURVE( '', #250, #250, #251, .T. );
#232 = EDGE_CURVE( '', #252, #252, #253, .T. );
#233 = EDGE_CURVE( '', #254, #254, #255, .T. );
#234 = EDGE_CURVE( '', #256, #256, #257, .T. );
#235 = EDGE_CURVE( '', #258, #258, #259, .T. );
#236 = VERTEX_POINT( '', #260 );
#237 = CIRCLE( '', #261, 2.00000000000000 );
#238 = VERTEX_POINT( '', #262 );
#239 = CIRCLE( '', #263, 2.08608033100000 );
#240 = VERTEX_POINT( '', #264 );
#241 = CIRCLE( '', #265, 2.09928616940000 );
#242 = VERTEX_POINT( '', #266 );
#243 = CIRCLE( '', #267, 2.00000000000000 );
#244 = VERTEX_POINT( '', #268 );
#245 = CIRCLE( '', #269, 2.00000000000000 );
#246 = VERTEX_POINT( '', #270 );
#247 = CIRCLE( '', #271, 2.06000000000000 );
#248 = VERTEX_POINT( '', #272 );
#249 = CIRCLE( '', #273, 2.12000000000000 );
#250 = VERTEX_POINT( '', #274 );
#251 = CIRCLE( '', #275, 2.40000000000000 );
#252 = VERTEX_POINT( '', #276 );
#253 = CIRCLE( '', #277, 2.40000000000000 );
#254 = VERTEX_POINT( '', #278 );
#255 = CIRCLE( '', #279, 2.30000000000000 );
#256 = VERTEX_POINT( '', #280 );
#257 = CIRCLE( '', #281, 2.30000000000000 );
#258 = VERTEX_POINT( '', #282 );
#259 = CIRCLE( '', #283, 2.20568005220000 );
#260 = CARTESIAN_POINT( '', ( 0.000000000000000, 0.000000000000000, -2.00000000000000 ) );
#261 = AXIS2_PLACEMENT_3D( '', #284, #285, #286 );
#262 = CARTESIAN_POINT( '', ( 0.000000000000000, 0.000000000000000, -2.08608033103664 ) );
#263 = AXIS2_PLACEMENT_3D( '', #287, #288, #289 );
#264 = CARTESIAN_POINT( '', ( 1.21253546610668, 0.000000000000000, -2.09928616939663 ) );
#265 = AXIS2_PLACEMENT_3D( '', #290, #291, #292 );
#266 = CARTESIAN_POINT( '', ( 1.41110770276275, 0.000000000000000, -2.00000000000000 ) );
#267 = AXIS2_PLACEMENT_3D( '', #293, #294, #295 );
#268 = CARTESIAN_POINT( '', ( 5.11200000000000, 0.000000000000000, -2.00000000000000 ) );
#269 = AXIS2_PLACEMENT_3D( '', #296, #297, #298 );
#270 = CARTESIAN_POINT( '', ( 6.00000000000000, 0.000000000000000, -2.06000000000000 ) );
#271 = AXIS2_PLACEMENT_3D( '', #299, #300, #301 );
#272 = CARTESIAN_POINT( '', ( 6.00000000000000, 0.000000000000000, -2.12000000000000 ) );
#273 = AXIS2_PLACEMENT_3D( '', #302, #303, #304 );
#274 = CARTESIAN_POINT( '', ( 5.34000000000000, 0.000000000000000, -2.40000000000000 ) );
#275 = AXIS2_PLACEMENT_3D( '', #305, #306, #307 );
#276 = CARTESIAN_POINT( '', ( 2.82000000000000, 0.000000000000000, -2.40000000000000 ) );
#277 = AXIS2_PLACEMENT_3D( '', #308, #309, #310 );
#278 = CARTESIAN_POINT( '', ( 2.64000000000000, 0.000000000000000, -2.30000000000000 ) );
#279 = AXIS2_PLACEMENT_3D( '', #311, #312, #313 );
#280 = CARTESIAN_POINT( '', ( 1.26209213218225, 0.000000000000000, -2.30000000000000 ) );
#281 = AXIS2_PLACEMENT_3D( '', #314, #315, #316 );
#282 = CARTESIAN_POINT( '', ( 0.110206803424306, 0.000000000000000, -2.20568005219363 ) );
#283 = AXIS2_PLACEMENT_3D( '', #317, #318, #319 );
#284 = CARTESIAN_POINT( '', ( 0.000000000000000, 0.000000000000000, 0.000000000000000 ) );
#285 = DIRECTION( '', ( 1.00000000000000, 0.000000000000000, -0.000000000000000 ) );
#286 = DIRECTION( '', ( -0.000000000000000, 0.000000000000000, -1.00000000000000 ) );
#287 = CARTESIAN_POINT( '', ( 0.000000000000000, 0.000000000000000, 0.000000000000000 ) );
#288 = DIRECTION( '', ( 1.00000000000000, 0.000000000000000, -0.000000000000000 ) );
#289 = DIRECTION( '', ( -0.000000000000000, 0.000000000000000, -1.00000000000000 ) );
#290 = CARTESIAN_POINT( '', ( 1.21253546610668, 0.000000000000000, 0.000000000000000 ) );
#291 = DIRECTION( '', ( 1.00000000000000, 0.000000000000000, -0.000000000000000 ) );
#292 = DIRECTION( '', ( -0.000000000000000, 0.000000000000000, -1.00000000000000 ) );
#293 = CARTESIAN_POINT( '', ( 1.41110770276275, 0.000000000000000, 0.000000000000000 ) );
#294 = DIRECTION( '', ( 1.00000000000000, 0.000000000000000, -0.000000000000000 ) );
#295 = DIRECTION( '', ( -0.000000000000000, 0.000000000000000, -1.00000000000000 ) );
#296 = CARTESIAN_POINT( '', ( 5.11200000000000, 0.000000000000000, 0.000000000000000 ) );
#297 = DIRECTION( '', ( 1.00000000000000, 0.000000000000000, -0.000000000000000 ) );
#298 = DIRECTION( '', ( -0.000000000000000, 0.000000000000000, -1.00000000000000 ) );
#299 = CARTESIAN_POINT( '', ( 6.00000000000000, 0.000000000000000, 0.000000000000000 ) );
#300 = DIRECTION( '', ( 1.00000000000000, 0.000000000000000, -0.000000000000000 ) );
#301 = DIRECTION( '', ( -0.000000000000000, 0.000000000000000, -1.00000000000000 ) );
#302 = CARTESIAN_POINT( '', ( 6.00000000000000, 0.000000000000000, 0.000000000000000 ) );
#303 = DIRECTION( '', ( 1.00000000000000, 0.000000000000000, -0.000000000000000 ) );
#304 = DIRECTION( '', ( -0.000000000000000, 0.000000000000000, -1.00000000000000 ) );
#305 = CARTESIAN_POINT( '', ( 5.34000000000000, 0.000000000000000, 0.000000000000000 ) );
#306 = DIRECTION( '', ( 1.00000000000000, 0.000000000000000, -0.000000000000000 ) );
#307 = DIRECTION( '', ( -0.000000000000000, 0.000000000000000, -1.00000000000000 ) );
#308 = CARTESIAN_POINT( '', ( 2.82000000000000, 0.000000000000000, 0.000000000000000 ) );
#309 = DIRECTION( '', ( 1.00000000000000, 0.000000000000000, -0.000000000000000 ) );
#310 = DIRECTION( '', ( -0.000000000000000, 0.000000000000000, -1.00000000000000 ) );
#311 = CARTESIAN_POINT( '', ( 2.64000000000000, 0.000000000000000, 0.000000000000000 ) );
#312 = DIRECTION( '', ( 1.00000000000000, 0.000000000000000, -0.000000000000000 ) );
#313 = DIRECTION( '', ( -0.000000000000000, 0.000000000000000, -1.00000000000000 ) );
#314 = CARTESIAN_POINT( '', ( 1.26209213218225, 0.000000000000000, 0.000000000000000 ) );
#315 = DIRECTION( '', ( 1.00000000000000, 0.000000000000000, -0.000000000000000 ) );
#316 = DIRECTION( '', ( -0.000000000000000, 0.000000000000000, -1.00000000000000 ) );
#317 = CARTESIAN_POINT( '', ( 0.110206803424306, 0.000000000000000, 0.000000000000000 ) );
#318 = DIRECTION( '', ( 1.00000000000000, 0.000000000000000, -0.000000000000000 ) );
#319 = DIRECTION( '', ( -0.000000000000000, 0.000000000000000, -1.00000000000000 ) );
ENDSEC;
END-ISO-10303-21;
