ISO-10303-21;
HEADER;
/* Generated by software containing ST-Developer
 * from STEP Tools, Inc. (www.steptools.com) 
 */
/* OPTION: using custom schema-name function */

FILE_DESCRIPTION(( 'MX.30.00.14.stp' ), '1');
FILE_NAME( 'MX.30.00.14.stp', '2018-11-13T11:37:04',( 'Sopra'),('sopra-pneumatic.com'), 'SwSTEP 2.0','SolidWorks 2009','' );
FILE_SCHEMA (('CONFIG_CONTROL_DESIGN'));
ENDSEC;

DATA;
#10=SHAPE_REPRESENTATION_RELATIONSHIP('','',#189,#13);
#11=SHAPE_REPRESENTATION_RELATIONSHIP('','',#189,#15);
#12=GEOMETRIC_CURVE_SET('curve_set_0',(#87,#88));
#13=GEOMETRICALLY_BOUNDED_WIREFRAME_SHAPE_REPRESENTATION(
'wireframe_rep_0',(#12,#193),#188);
#14=MANIFOLD_SOLID_BREP('brep_1',#16);
#15=ADVANCED_BREP_SHAPE_REPRESENTATION('brep_rep_0',(#14,#194),#188);
#16=CLOSED_SHELL('',(#17,#18,#19,#20,#21,#22));
#17=ADVANCED_FACE('',(#25,#23),#101,.T.);
#18=ADVANCED_FACE('',(#26),#97,.T.);
#19=ADVANCED_FACE('',(#27),#98,.T.);
#20=ADVANCED_FACE('',(#28,#24),#102,.T.);
#21=ADVANCED_FACE('',(#29),#99,.T.);
#22=ADVANCED_FACE('',(#30),#100,.T.);
#23=FACE_BOUND('',#32,.T.);
#24=FACE_BOUND('',#36,.T.);
#25=FACE_OUTER_BOUND('',#31,.T.);
#26=FACE_OUTER_BOUND('',#33,.T.);
#27=FACE_OUTER_BOUND('',#34,.T.);
#28=FACE_OUTER_BOUND('',#35,.T.);
#29=FACE_OUTER_BOUND('',#37,.T.);
#30=FACE_OUTER_BOUND('',#38,.T.);
#31=EDGE_LOOP('',(#39,#40));
#32=EDGE_LOOP('',(#41,#42));
#33=EDGE_LOOP('',(#43,#44,#45,#46));
#34=EDGE_LOOP('',(#47,#48,#49,#50));
#35=EDGE_LOOP('',(#51,#52));
#36=EDGE_LOOP('',(#53,#54));
#37=EDGE_LOOP('',(#55,#56,#57,#58));
#38=EDGE_LOOP('',(#59,#60,#61,#62));
#39=ORIENTED_EDGE('',*,*,#63,.T.);
#40=ORIENTED_EDGE('',*,*,#70,.T.);
#41=ORIENTED_EDGE('',*,*,#64,.T.);
#42=ORIENTED_EDGE('',*,*,#73,.T.);
#43=ORIENTED_EDGE('',*,*,#69,.T.);
#44=ORIENTED_EDGE('',*,*,#71,.T.);
#45=ORIENTED_EDGE('',*,*,#65,.F.);
#46=ORIENTED_EDGE('',*,*,#70,.F.);
#47=ORIENTED_EDGE('',*,*,#72,.T.);
#48=ORIENTED_EDGE('',*,*,#74,.T.);
#49=ORIENTED_EDGE('',*,*,#67,.F.);
#50=ORIENTED_EDGE('',*,*,#73,.F.);
#51=ORIENTED_EDGE('',*,*,#71,.F.);
#52=ORIENTED_EDGE('',*,*,#66,.F.);
#53=ORIENTED_EDGE('',*,*,#74,.F.);
#54=ORIENTED_EDGE('',*,*,#68,.F.);
#55=ORIENTED_EDGE('',*,*,#63,.F.);
#56=ORIENTED_EDGE('',*,*,#65,.T.);
#57=ORIENTED_EDGE('',*,*,#66,.T.);
#58=ORIENTED_EDGE('',*,*,#69,.F.);
#59=ORIENTED_EDGE('',*,*,#64,.F.);
#60=ORIENTED_EDGE('',*,*,#67,.T.);
#61=ORIENTED_EDGE('',*,*,#68,.T.);
#62=ORIENTED_EDGE('',*,*,#72,.F.);
#63=EDGE_CURVE('',#89,#93,#75,.T.);
#64=EDGE_CURVE('',#90,#95,#76,.T.);
#65=EDGE_CURVE('',#89,#91,#77,.T.);
#66=EDGE_CURVE('',#91,#94,#78,.T.);
#67=EDGE_CURVE('',#90,#92,#79,.T.);
#68=EDGE_CURVE('',#92,#96,#80,.T.);
#69=EDGE_CURVE('',#93,#94,#81,.T.);
#70=EDGE_CURVE('',#93,#89,#82,.T.);
#71=EDGE_CURVE('',#94,#91,#83,.T.);
#72=EDGE_CURVE('',#95,#96,#84,.T.);
#73=EDGE_CURVE('',#95,#90,#85,.T.);
#74=EDGE_CURVE('',#96,#92,#86,.T.);
#75=B_SPLINE_CURVE_WITH_KNOTS('',3,(#270,#271,#272,#273,#274,#275,#276),
 .UNSPECIFIED.,.F.,.F.,(4,3,4),(0.,1.,2.),.UNSPECIFIED.);
#76=B_SPLINE_CURVE_WITH_KNOTS('',3,(#277,#278,#279,#280,#281,#282,#283),
 .UNSPECIFIED.,.F.,.F.,(4,3,4),(-4.,-3.,-2.),.UNSPECIFIED.);
#77=B_SPLINE_CURVE_WITH_KNOTS('',1,(#284,#285),.UNSPECIFIED.,.F.,.F.,(2,
2),(0.,0.564816778664934),.UNSPECIFIED.);
#78=B_SPLINE_CURVE_WITH_KNOTS('',3,(#286,#287,#288,#289,#290,#291,#292),
 .UNSPECIFIED.,.F.,.F.,(4,3,4),(0.,1.,2.),.UNSPECIFIED.);
#79=B_SPLINE_CURVE_WITH_KNOTS('',1,(#293,#294),.UNSPECIFIED.,.F.,.F.,(2,
2),(0.,0.564816778664934),.UNSPECIFIED.);
#80=B_SPLINE_CURVE_WITH_KNOTS('',3,(#295,#296,#297,#298,#299,#300,#301),
 .UNSPECIFIED.,.F.,.F.,(4,3,4),(-4.,-3.,-2.),.UNSPECIFIED.);
#81=B_SPLINE_CURVE_WITH_KNOTS('',1,(#302,#303),.UNSPECIFIED.,.F.,.F.,(2,
2),(0.,0.564816778664934),.UNSPECIFIED.);
#82=B_SPLINE_CURVE_WITH_KNOTS('',3,(#304,#305,#306,#307,#308,#309,#310),
 .UNSPECIFIED.,.F.,.F.,(4,3,4),(2.,3.,4.),.UNSPECIFIED.);
#83=B_SPLINE_CURVE_WITH_KNOTS('',3,(#311,#312,#313,#314,#315,#316,#317),
 .UNSPECIFIED.,.F.,.F.,(4,3,4),(2.,3.,4.),.UNSPECIFIED.);
#84=B_SPLINE_CURVE_WITH_KNOTS('',1,(#318,#319),.UNSPECIFIED.,.F.,.F.,(2,
2),(0.,0.564816778664934),.UNSPECIFIED.);
#85=B_SPLINE_CURVE_WITH_KNOTS('',3,(#320,#321,#322,#323,#324,#325,#326),
 .UNSPECIFIED.,.F.,.F.,(4,3,4),(-2.,-1.,0.),.UNSPECIFIED.);
#86=B_SPLINE_CURVE_WITH_KNOTS('',3,(#327,#328,#329,#330,#331,#332,#333),
 .UNSPECIFIED.,.F.,.F.,(4,3,4),(-2.,-1.,0.),.UNSPECIFIED.);
#87=B_SPLINE_CURVE_WITH_KNOTS('',3,(#334,#335,#336,#337,#338,#339,#340,
#341,#342,#343,#344,#345,#346),.UNSPECIFIED.,.T.,.F.,(4,3,3,3,4),(0.,1.,
2.,3.,4.),.UNSPECIFIED.);
#88=B_SPLINE_CURVE_WITH_KNOTS('',3,(#347,#348,#349,#350,#351,#352,#353,
#354,#355,#356,#357,#358,#359),.UNSPECIFIED.,.T.,.F.,(4,3,3,3,4),(0.,1.,
2.,3.,4.),.UNSPECIFIED.);
#89=VERTEX_POINT('',#262);
#90=VERTEX_POINT('',#263);
#91=VERTEX_POINT('',#264);
#92=VERTEX_POINT('',#265);
#93=VERTEX_POINT('',#266);
#94=VERTEX_POINT('',#267);
#95=VERTEX_POINT('',#268);
#96=VERTEX_POINT('',#269);
#97=B_SPLINE_SURFACE_WITH_KNOTS('',3,1,((#205,#206),(#207,#208),(#209,#210),
(#211,#212),(#213,#214),(#215,#216),(#217,#218)),.UNSPECIFIED.,.F.,.F.,
 .F.,(4,3,4),(2,2),(-4.,-3.,-2.),(0.,0.564816778664934),.UNSPECIFIED.);
#98=B_SPLINE_SURFACE_WITH_KNOTS('',3,1,((#219,#220),(#221,#222),(#223,#224),
(#225,#226),(#227,#228),(#229,#230),(#231,#232)),.UNSPECIFIED.,.F.,.F.,
 .F.,(4,3,4),(2,2),(0.,1.,2.),(0.,0.564816778664934),.UNSPECIFIED.);
#99=B_SPLINE_SURFACE_WITH_KNOTS('',3,1,((#234,#235),(#236,#237),(#238,#239),
(#240,#241),(#242,#243),(#244,#245),(#246,#247)),.UNSPECIFIED.,.F.,.F.,
 .F.,(4,3,4),(2,2),(-2.,-1.,0.),(0.,0.564816778664934),.UNSPECIFIED.);
#100=B_SPLINE_SURFACE_WITH_KNOTS('',3,1,((#248,#249),(#250,#251),(#252,
#253),(#254,#255),(#256,#257),(#258,#259),(#260,#261)),.UNSPECIFIED.,.F.,
 .F.,.F.,(4,3,4),(2,2),(2.,3.,4.),(0.,0.564816778664934),.UNSPECIFIED.);
#101=PLANE('',#191);
#102=PLANE('',#192);
#103=SHAPE_DEFINITION_REPRESENTATION(#104,#189);
#104=PRODUCT_DEFINITION_SHAPE('Document','',#106);
#105=PRODUCT_DEFINITION_CONTEXT('3D Mechanical Parts',#178,'design');
#106=PRODUCT_DEFINITION('A','First version',#148,#105);
#107=DATE_TIME_ROLE('classification_date');
#108=DATE_TIME_ROLE('creation_date');
#109=APPLIED_DATE_AND_TIME_ASSIGNMENT(#133,#107,(#112));
#110=APPLIED_DATE_AND_TIME_ASSIGNMENT(#135,#108,(#106));
#111=SECURITY_CLASSIFICATION_LEVEL('unclassified');
#112=SECURITY_CLASSIFICATION('A','Security for version',#111);
#113=APPLIED_SECURITY_CLASSIFICATION_ASSIGNMENT(#112,(#148));
#114=APPROVAL_ROLE('Version approval');
#115=APPROVAL_ROLE('Version Security approval');
#116=APPROVAL_ROLE('Definition approval');
#117=APPROVAL_PERSON_ORGANIZATION(#166,#142,#114);
#118=APPROVAL_PERSON_ORGANIZATION(#167,#143,#115);
#119=APPROVAL_PERSON_ORGANIZATION(#170,#144,#116);
#120=COORDINATED_UNIVERSAL_TIME_OFFSET(5,0,.BEHIND.);
#121=LOCAL_TIME(0,0,0.,#120);
#122=LOCAL_TIME(0,0,0.,#120);
#123=LOCAL_TIME(0,0,0.,#120);
#124=LOCAL_TIME(0,0,0.,#120);
#125=LOCAL_TIME(0,0,0.,#120);
#126=CALENDAR_DATE(1999,1,1);
#127=CALENDAR_DATE(1999,1,1);
#128=CALENDAR_DATE(1999,1,1);
#129=CALENDAR_DATE(1999,1,1);
#130=CALENDAR_DATE(1999,1,1);
#131=DATE_AND_TIME(#126,#121);
#132=DATE_AND_TIME(#127,#122);
#133=DATE_AND_TIME(#128,#123);
#134=DATE_AND_TIME(#129,#124);
#135=DATE_AND_TIME(#130,#125);
#136=APPROVAL_DATE_TIME(#131,#142);
#137=APPROVAL_DATE_TIME(#132,#143);
#138=APPROVAL_DATE_TIME(#134,#144);
#139=APPROVAL_STATUS('not_yet_approved');
#140=APPROVAL_STATUS('not_yet_approved');
#141=APPROVAL_STATUS('approved');
#142=APPROVAL(#139,'Version approval');
#143=APPROVAL(#140,'Version Security approval');
#144=APPROVAL(#141,'Definition approval');
#145=APPLIED_APPROVAL_ASSIGNMENT(#142,(#148));
#146=APPLIED_APPROVAL_ASSIGNMENT(#143,(#112));
#147=APPLIED_APPROVAL_ASSIGNMENT(#144,(#106));
#148=PRODUCT_DEFINITION_FORMATION_WITH_SPECIFIED_SOURCE('A',
'First version',#180,.MADE.);
#149=PERSON_AND_ORGANIZATION_ROLE('design_owner');
#150=PERSON_AND_ORGANIZATION_ROLE('creator');
#151=PERSON_AND_ORGANIZATION_ROLE('design_supplier');
#152=PERSON_AND_ORGANIZATION_ROLE('classification_officer');
#153=PERSON_AND_ORGANIZATION_ROLE('creator');
#154=ORGANIZATION('STI','lab','lab');
#155=ORGANIZATION('STI','unknown','unknown');
#156=ORGANIZATION('STI','unknown','unknown');
#157=ORGANIZATION('STI','unknown','unknown');
#158=ORGANIZATION('STI','unknown','unknown');
#159=ORGANIZATION('STI','unknown','unknown');
#160=ORGANIZATION('STI','unknown','unknown');
#161=PERSON('1','Box','vc60',$,$,$);
#162=PERSON('2','last','first',$,$,$);
#163=PERSON('3','President','Mr.',$,$,$);
#164=PERSON_AND_ORGANIZATION(#161,#154);
#165=PERSON_AND_ORGANIZATION(#162,#155);
#166=PERSON_AND_ORGANIZATION(#163,#156);
#167=PERSON_AND_ORGANIZATION(#163,#157);
#168=PERSON_AND_ORGANIZATION(#163,#158);
#169=PERSON_AND_ORGANIZATION(#162,#159);
#170=PERSON_AND_ORGANIZATION(#163,#160);
#171=APPLIED_PERSON_AND_ORGANIZATION_ASSIGNMENT(#164,#149,(#180));
#172=APPLIED_PERSON_AND_ORGANIZATION_ASSIGNMENT(#165,#150,(#148));
#173=APPLIED_PERSON_AND_ORGANIZATION_ASSIGNMENT(#165,#151,(#148));
#174=APPLIED_PERSON_AND_ORGANIZATION_ASSIGNMENT(#168,#152,(#112));
#175=APPLIED_PERSON_AND_ORGANIZATION_ASSIGNMENT(#169,#153,(#106));
#176=PRODUCT_RELATED_PRODUCT_CATEGORY('detail','detail',(#180));
#177=APPLICATION_PROTOCOL_DEFINITION('International Standard',
'config_control_design',1994,#178);
#178=APPLICATION_CONTEXT(
'configuration controlled 3d designs of mechanical parts and assemblie
s');
#179=PRODUCT_CONTEXT('3D Mechanical Parts',#178,'mechanical');
#180=PRODUCT('Document','Document','Rhino converted to STEP',(#179));
#181=(
LENGTH_UNIT()
NAMED_UNIT(*)
SI_UNIT(.MILLI.,.METRE.)
);
#182=(
NAMED_UNIT(*)
PLANE_ANGLE_UNIT()
SI_UNIT($,.RADIAN.)
);
#183=DIMENSIONAL_EXPONENTS(0.,0.,0.,0.,0.,0.,0.);
#184=PLANE_ANGLE_MEASURE_WITH_UNIT(PLANE_ANGLE_MEASURE(0.01745329252),#182);
#185=(
CONVERSION_BASED_UNIT('DEGREES',#184)
NAMED_UNIT(#183)
PLANE_ANGLE_UNIT()
);
#186=(
NAMED_UNIT(*)
SI_UNIT($,.STERADIAN.)
SOLID_ANGLE_UNIT()
);
#187=UNCERTAINTY_MEASURE_WITH_UNIT(LENGTH_MEASURE(0.001),#181,
'DISTANCE_ACCURACY_VALUE',
'Maximum model space distance between geometric entities at asserted c
onnectivities');
#188=(
GEOMETRIC_REPRESENTATION_CONTEXT(3)
GLOBAL_UNCERTAINTY_ASSIGNED_CONTEXT((#187))
GLOBAL_UNIT_ASSIGNED_CONTEXT((#186,#185,#181))
REPRESENTATION_CONTEXT('ID1','3D')
);
#189=SHAPE_REPRESENTATION('Document',(#190,#193,#194),#188);
#190=AXIS2_PLACEMENT_3D('',#203,#195,#196);
#191=AXIS2_PLACEMENT_3D('',#204,#197,$);
#192=AXIS2_PLACEMENT_3D('',#233,#198,$);
#193=AXIS2_PLACEMENT_3D('',#360,#199,#200);
#194=AXIS2_PLACEMENT_3D('',#361,#201,#202);
#195=DIRECTION('',(0.,0.,1.));
#196=DIRECTION('',(1.,0.,0.));
#197=DIRECTION('',(0.,0.,-1.));
#198=DIRECTION('',(0.,0.,1.));
#199=DIRECTION('',(0.,0.,1.));
#200=DIRECTION('',(1.,0.,0.));
#201=DIRECTION('',(0.,0.,1.));
#202=DIRECTION('',(1.,0.,0.));
#203=CARTESIAN_POINT('',(0.,0.,0.));
#204=CARTESIAN_POINT('',(3.6376041492238,20.5665256448193,1.40596518890434));
#205=CARTESIAN_POINT('',(21.8177388158905,11.3864576448194,1.40596518890434));
#206=CARTESIAN_POINT('',(21.8177388158905,11.3864576448194,3.40596518890434));
#207=CARTESIAN_POINT('',(21.8177388158905,16.3570965337083,1.40596518890434));
#208=CARTESIAN_POINT('',(21.8177388158905,16.3570965337083,3.40596518890434));
#209=CARTESIAN_POINT('',(17.7883110381127,20.386524311486,1.40596518890434));
#210=CARTESIAN_POINT('',(17.7883110381127,20.386524311486,3.40596518890434));
#211=CARTESIAN_POINT('',(12.8176721492238,20.386524311486,1.40596518890434));
#212=CARTESIAN_POINT('',(12.8176721492238,20.386524311486,3.40596518890434));
#213=CARTESIAN_POINT('',(7.84703326033491,20.386524311486,1.40596518890434));
#214=CARTESIAN_POINT('',(7.84703326033491,20.386524311486,3.40596518890434));
#215=CARTESIAN_POINT('',(3.81760548255713,16.3570965337083,1.40596518890434));
#216=CARTESIAN_POINT('',(3.81760548255713,16.3570965337083,3.40596518890434));
#217=CARTESIAN_POINT('',(3.81760548255713,11.3864576448194,1.40596518890434));
#218=CARTESIAN_POINT('',(3.81760548255713,11.3864576448194,3.40596518890434));
#219=CARTESIAN_POINT('',(19.3677324270016,11.3864576448194,1.40596518890434));
#220=CARTESIAN_POINT('',(19.3677324270016,11.3864576448194,3.40596518890434));
#221=CARTESIAN_POINT('',(19.3677324270016,7.76907431148602,1.40596518890434));
#222=CARTESIAN_POINT('',(19.3677324270016,7.76907431148602,3.40596518890434));
#223=CARTESIAN_POINT('',(16.4350907603349,4.83643264481936,1.40596518890434));
#224=CARTESIAN_POINT('',(16.4350907603349,4.83643264481936,3.40596518890434));
#225=CARTESIAN_POINT('',(12.8177074270016,4.83643264481936,1.40596518890434));
#226=CARTESIAN_POINT('',(12.8177074270016,4.83643264481936,3.40596518890434));
#227=CARTESIAN_POINT('',(9.20032409366825,4.83643264481936,1.40596518890434));
#228=CARTESIAN_POINT('',(9.20032409366825,4.83643264481936,3.40596518890434));
#229=CARTESIAN_POINT('',(6.26768242700159,7.76907431148602,1.40596518890434));
#230=CARTESIAN_POINT('',(6.26768242700159,7.76907431148602,3.40596518890434));
#231=CARTESIAN_POINT('',(6.26768242700159,11.3864576448194,1.40596518890434));
#232=CARTESIAN_POINT('',(6.26768242700159,11.3864576448194,3.40596518890434));
#233=CARTESIAN_POINT('',(3.6376041492238,20.5665256448193,3.40596518890434));
#234=CARTESIAN_POINT('',(3.81760548255713,11.3864576448194,1.40596518890434));
#235=CARTESIAN_POINT('',(3.81760548255713,11.3864576448194,3.40596518890434));
#236=CARTESIAN_POINT('',(3.81760548255713,6.41581875593046,1.40596518890434));
#237=CARTESIAN_POINT('',(3.81760548255713,6.41581875593046,3.40596518890434));
#238=CARTESIAN_POINT('',(7.84703326033491,2.38639097815273,1.40596518890434));
#239=CARTESIAN_POINT('',(7.84703326033491,2.38639097815273,3.40596518890434));
#240=CARTESIAN_POINT('',(12.8176721492238,2.38639097815273,1.40596518890434));
#241=CARTESIAN_POINT('',(12.8176721492238,2.38639097815273,3.40596518890434));
#242=CARTESIAN_POINT('',(17.7883110381127,2.38639097815273,1.40596518890434));
#243=CARTESIAN_POINT('',(17.7883110381127,2.38639097815273,3.40596518890434));
#244=CARTESIAN_POINT('',(21.8177388158905,6.41581875593046,1.40596518890434));
#245=CARTESIAN_POINT('',(21.8177388158905,6.41581875593046,3.40596518890434));
#246=CARTESIAN_POINT('',(21.8177388158905,11.3864576448194,1.40596518890434));
#247=CARTESIAN_POINT('',(21.8177388158905,11.3864576448194,3.40596518890434));
#248=CARTESIAN_POINT('',(6.26768242700159,11.3864576448194,1.40596518890434));
#249=CARTESIAN_POINT('',(6.26768242700159,11.3864576448194,3.40596518890434));
#250=CARTESIAN_POINT('',(6.26768242700159,15.0038409781527,1.40596518890434));
#251=CARTESIAN_POINT('',(6.26768242700159,15.0038409781527,3.40596518890434));
#252=CARTESIAN_POINT('',(9.20032409366825,17.9364826448194,1.40596518890434));
#253=CARTESIAN_POINT('',(9.20032409366825,17.9364826448194,3.40596518890434));
#254=CARTESIAN_POINT('',(12.8177074270016,17.9364826448194,1.40596518890434));
#255=CARTESIAN_POINT('',(12.8177074270016,17.9364826448194,3.40596518890434));
#256=CARTESIAN_POINT('',(16.4350907603349,17.9364826448194,1.40596518890434));
#257=CARTESIAN_POINT('',(16.4350907603349,17.9364826448194,3.40596518890434));
#258=CARTESIAN_POINT('',(19.3677324270016,15.0038409781527,1.40596518890434));
#259=CARTESIAN_POINT('',(19.3677324270016,15.0038409781527,3.40596518890434));
#260=CARTESIAN_POINT('',(19.3677324270016,11.3864576448194,1.40596518890434));
#261=CARTESIAN_POINT('',(19.3677324270016,11.3864576448194,3.40596518890434));
#262=CARTESIAN_POINT('',(21.8177388158905,11.3864576448194,1.40596518890434));
#263=CARTESIAN_POINT('',(19.3677324270016,11.3864576448194,1.40596518890434));
#264=CARTESIAN_POINT('',(21.8177388158905,11.3864576448194,3.40596518890434));
#265=CARTESIAN_POINT('',(19.3677324270016,11.3864576448194,3.40596518890434));
#266=CARTESIAN_POINT('',(3.81760548255713,11.3864576448194,1.40596518890434));
#267=CARTESIAN_POINT('',(3.81760548255713,11.3864576448194,3.40596518890434));
#268=CARTESIAN_POINT('',(6.26768242700159,11.3864576448194,1.40596518890434));
#269=CARTESIAN_POINT('',(6.26768242700159,11.3864576448194,3.40596518890434));
#270=CARTESIAN_POINT('',(21.8177388158905,11.3864576448194,1.40596518890434));
#271=CARTESIAN_POINT('',(21.8177388158905,6.41581875593046,1.40596518890434));
#272=CARTESIAN_POINT('',(17.7883110381127,2.38639097815273,1.40596518890434));
#273=CARTESIAN_POINT('',(12.8176721492238,2.38639097815273,1.40596518890434));
#274=CARTESIAN_POINT('',(7.84703326033491,2.38639097815273,1.40596518890434));
#275=CARTESIAN_POINT('',(3.81760548255713,6.41581875593046,1.40596518890434));
#276=CARTESIAN_POINT('',(3.81760548255713,11.3864576448194,1.40596518890434));
#277=CARTESIAN_POINT('',(19.3677324270016,11.3864576448194,1.40596518890434));
#278=CARTESIAN_POINT('',(19.3677324270016,15.0038409781527,1.40596518890434));
#279=CARTESIAN_POINT('',(16.4350907603349,17.9364826448194,1.40596518890434));
#280=CARTESIAN_POINT('',(12.8177074270016,17.9364826448194,1.40596518890434));
#281=CARTESIAN_POINT('',(9.20032409366825,17.9364826448194,1.40596518890434));
#282=CARTESIAN_POINT('',(6.26768242700159,15.0038409781527,1.40596518890434));
#283=CARTESIAN_POINT('',(6.26768242700159,11.3864576448194,1.40596518890434));
#284=CARTESIAN_POINT('',(21.8177388158905,11.3864576448194,1.40596518890434));
#285=CARTESIAN_POINT('',(21.8177388158905,11.3864576448194,3.40596518890434));
#286=CARTESIAN_POINT('',(21.8177388158905,11.3864576448194,3.40596518890434));
#287=CARTESIAN_POINT('',(21.8177388158905,6.41581875593046,3.40596518890434));
#288=CARTESIAN_POINT('',(17.7883110381127,2.38639097815273,3.40596518890434));
#289=CARTESIAN_POINT('',(12.8176721492238,2.38639097815273,3.40596518890434));
#290=CARTESIAN_POINT('',(7.84703326033491,2.38639097815273,3.40596518890434));
#291=CARTESIAN_POINT('',(3.81760548255713,6.41581875593046,3.40596518890434));
#292=CARTESIAN_POINT('',(3.81760548255713,11.3864576448194,3.40596518890434));
#293=CARTESIAN_POINT('',(19.3677324270016,11.3864576448194,1.40596518890434));
#294=CARTESIAN_POINT('',(19.3677324270016,11.3864576448194,3.40596518890434));
#295=CARTESIAN_POINT('',(19.3677324270016,11.3864576448194,3.40596518890434));
#296=CARTESIAN_POINT('',(19.3677324270016,15.0038409781527,3.40596518890434));
#297=CARTESIAN_POINT('',(16.4350907603349,17.9364826448194,3.40596518890434));
#298=CARTESIAN_POINT('',(12.8177074270016,17.9364826448194,3.40596518890434));
#299=CARTESIAN_POINT('',(9.20032409366825,17.9364826448194,3.40596518890434));
#300=CARTESIAN_POINT('',(6.26768242700159,15.0038409781527,3.40596518890434));
#301=CARTESIAN_POINT('',(6.26768242700159,11.3864576448194,3.40596518890434));
#302=CARTESIAN_POINT('',(3.81760548255713,11.3864576448194,1.40596518890434));
#303=CARTESIAN_POINT('',(3.81760548255713,11.3864576448194,3.40596518890434));
#304=CARTESIAN_POINT('',(3.81760548255713,11.3864576448194,1.40596518890434));
#305=CARTESIAN_POINT('',(3.81760548255713,16.3570965337083,1.40596518890434));
#306=CARTESIAN_POINT('',(7.84703326033491,20.386524311486,1.40596518890434));
#307=CARTESIAN_POINT('',(12.8176721492238,20.386524311486,1.40596518890434));
#308=CARTESIAN_POINT('',(17.7883110381127,20.386524311486,1.40596518890434));
#309=CARTESIAN_POINT('',(21.8177388158905,16.3570965337083,1.40596518890434));
#310=CARTESIAN_POINT('',(21.8177388158905,11.3864576448194,1.40596518890434));
#311=CARTESIAN_POINT('',(3.81760548255713,11.3864576448194,3.40596518890434));
#312=CARTESIAN_POINT('',(3.81760548255713,16.3570965337083,3.40596518890434));
#313=CARTESIAN_POINT('',(7.84703326033491,20.386524311486,3.40596518890434));
#314=CARTESIAN_POINT('',(12.8176721492238,20.386524311486,3.40596518890434));
#315=CARTESIAN_POINT('',(17.7883110381127,20.386524311486,3.40596518890434));
#316=CARTESIAN_POINT('',(21.8177388158905,16.3570965337083,3.40596518890434));
#317=CARTESIAN_POINT('',(21.8177388158905,11.3864576448194,3.40596518890434));
#318=CARTESIAN_POINT('',(6.26768242700159,11.3864576448194,1.40596518890434));
#319=CARTESIAN_POINT('',(6.26768242700159,11.3864576448194,3.40596518890434));
#320=CARTESIAN_POINT('',(6.26768242700159,11.3864576448194,1.40596518890434));
#321=CARTESIAN_POINT('',(6.26768242700159,7.76907431148602,1.40596518890434));
#322=CARTESIAN_POINT('',(9.20032409366825,4.83643264481937,1.40596518890434));
#323=CARTESIAN_POINT('',(12.8177074270016,4.83643264481937,1.40596518890434));
#324=CARTESIAN_POINT('',(16.4350907603349,4.83643264481937,1.40596518890434));
#325=CARTESIAN_POINT('',(19.3677324270016,7.76907431148602,1.40596518890434));
#326=CARTESIAN_POINT('',(19.3677324270016,11.3864576448194,1.40596518890434));
#327=CARTESIAN_POINT('',(6.26768242700159,11.3864576448194,3.40596518890434));
#328=CARTESIAN_POINT('',(6.26768242700159,7.76907431148602,3.40596518890434));
#329=CARTESIAN_POINT('',(9.20032409366825,4.83643264481937,3.40596518890434));
#330=CARTESIAN_POINT('',(12.8177074270016,4.83643264481937,3.40596518890434));
#331=CARTESIAN_POINT('',(16.4350907603349,4.83643264481937,3.40596518890434));
#332=CARTESIAN_POINT('',(19.3677324270016,7.76907431148602,3.40596518890434));
#333=CARTESIAN_POINT('',(19.3677324270016,11.3864576448194,3.40596518890434));
#334=CARTESIAN_POINT('',(19.3677324270016,11.3864576448194,2.12355679957187));
#335=CARTESIAN_POINT('',(19.3677324270016,7.76907431148602,2.12355679957187));
#336=CARTESIAN_POINT('',(16.4350907603349,4.83643264481937,2.12355679957187));
#337=CARTESIAN_POINT('',(12.8177074270016,4.83643264481937,2.12355679957187));
#338=CARTESIAN_POINT('',(9.20032409366825,4.83643264481937,2.12355679957187));
#339=CARTESIAN_POINT('',(6.26768242700159,7.76907431148602,2.12355679957187));
#340=CARTESIAN_POINT('',(6.26768242700159,11.3864576448194,2.12355679957187));
#341=CARTESIAN_POINT('',(6.26768242700159,15.0038409781527,2.12355679957187));
#342=CARTESIAN_POINT('',(9.20032409366825,17.9364826448194,2.12355679957187));
#343=CARTESIAN_POINT('',(12.8177074270016,17.9364826448194,2.12355679957187));
#344=CARTESIAN_POINT('',(16.4350907603349,17.9364826448194,2.12355679957187));
#345=CARTESIAN_POINT('',(19.3677324270016,15.0038409781527,2.12355679957187));
#346=CARTESIAN_POINT('',(19.3677324270016,11.3864576448194,2.12355679957187));
#347=CARTESIAN_POINT('',(19.3677324270016,11.3864576448194,2.12355679957187));
#348=CARTESIAN_POINT('',(19.3677324270016,7.76907431148602,2.12355679957187));
#349=CARTESIAN_POINT('',(16.4350907603349,4.83643264481937,2.12355679957187));
#350=CARTESIAN_POINT('',(12.8177074270016,4.83643264481937,2.12355679957187));
#351=CARTESIAN_POINT('',(9.20032409366825,4.83643264481937,2.12355679957187));
#352=CARTESIAN_POINT('',(6.26768242700159,7.76907431148602,2.12355679957187));
#353=CARTESIAN_POINT('',(6.26768242700159,11.3864576448194,2.12355679957187));
#354=CARTESIAN_POINT('',(6.26768242700159,15.0038409781527,2.12355679957187));
#355=CARTESIAN_POINT('',(9.20032409366825,17.9364826448194,2.12355679957187));
#356=CARTESIAN_POINT('',(12.8177074270016,17.9364826448194,2.12355679957187));
#357=CARTESIAN_POINT('',(16.4350907603349,17.9364826448194,2.12355679957187));
#358=CARTESIAN_POINT('',(19.3677324270016,15.0038409781527,2.12355679957187));
#359=CARTESIAN_POINT('',(19.3677324270016,11.3864576448194,2.12355679957187));
#360=CARTESIAN_POINT('',(0.,0.,0.));
#361=CARTESIAN_POINT('',(0.,0.,0.));
ENDSEC;
END-ISO-10303-21;
