ISO-10303-21;
HEADER;
/* Generated by software containing ST-Developer
 * from STEP Tools, Inc. (www.steptools.com) 
 */
/* OPTION: using custom schema-name function */

FILE_DESCRIPTION(( 'MX.30.00.12.stp' ), '1');
FILE_NAME( 'MX.30.00.12.stp', '2018-11-13T11:37:04',( 'Sopra'),('sopra-pneumatic.com'), 'SwSTEP 2.0','SolidWorks 2009','' );
FILE_SCHEMA (('CONFIG_CONTROL_DESIGN'));
ENDSEC;

DATA;
#10=SHAPE_REPRESENTATION_RELATIONSHIP('','',#184,#12);
#11=MANIFOLD_SOLID_BREP('brep_1',#13);
#12=ADVANCED_BREP_SHAPE_REPRESENTATION('brep_rep_0',(#11,#188),#183);
#13=CLOSED_SHELL('',(#14,#15,#16,#17,#18,#19));
#14=ADVANCED_FACE('',(#22,#20),#96,.T.);
#15=ADVANCED_FACE('',(#23),#92,.T.);
#16=ADVANCED_FACE('',(#24),#93,.T.);
#17=ADVANCED_FACE('',(#25,#21),#97,.T.);
#18=ADVANCED_FACE('',(#26),#94,.T.);
#19=ADVANCED_FACE('',(#27),#95,.T.);
#20=FACE_BOUND('',#29,.T.);
#21=FACE_BOUND('',#33,.T.);
#22=FACE_OUTER_BOUND('',#28,.T.);
#23=FACE_OUTER_BOUND('',#30,.T.);
#24=FACE_OUTER_BOUND('',#31,.T.);
#25=FACE_OUTER_BOUND('',#32,.T.);
#26=FACE_OUTER_BOUND('',#34,.T.);
#27=FACE_OUTER_BOUND('',#35,.T.);
#28=EDGE_LOOP('',(#36,#37));
#29=EDGE_LOOP('',(#38,#39));
#30=EDGE_LOOP('',(#40,#41,#42,#43));
#31=EDGE_LOOP('',(#44,#45,#46,#47));
#32=EDGE_LOOP('',(#48,#49));
#33=EDGE_LOOP('',(#50,#51));
#34=EDGE_LOOP('',(#52,#53,#54,#55));
#35=EDGE_LOOP('',(#56,#57,#58,#59));
#36=ORIENTED_EDGE('',*,*,#60,.T.);
#37=ORIENTED_EDGE('',*,*,#67,.T.);
#38=ORIENTED_EDGE('',*,*,#61,.T.);
#39=ORIENTED_EDGE('',*,*,#70,.T.);
#40=ORIENTED_EDGE('',*,*,#66,.T.);
#41=ORIENTED_EDGE('',*,*,#68,.T.);
#42=ORIENTED_EDGE('',*,*,#62,.F.);
#43=ORIENTED_EDGE('',*,*,#67,.F.);
#44=ORIENTED_EDGE('',*,*,#69,.T.);
#45=ORIENTED_EDGE('',*,*,#71,.T.);
#46=ORIENTED_EDGE('',*,*,#64,.F.);
#47=ORIENTED_EDGE('',*,*,#70,.F.);
#48=ORIENTED_EDGE('',*,*,#68,.F.);
#49=ORIENTED_EDGE('',*,*,#63,.F.);
#50=ORIENTED_EDGE('',*,*,#71,.F.);
#51=ORIENTED_EDGE('',*,*,#65,.F.);
#52=ORIENTED_EDGE('',*,*,#60,.F.);
#53=ORIENTED_EDGE('',*,*,#62,.T.);
#54=ORIENTED_EDGE('',*,*,#63,.T.);
#55=ORIENTED_EDGE('',*,*,#66,.F.);
#56=ORIENTED_EDGE('',*,*,#61,.F.);
#57=ORIENTED_EDGE('',*,*,#64,.T.);
#58=ORIENTED_EDGE('',*,*,#65,.T.);
#59=ORIENTED_EDGE('',*,*,#69,.F.);
#60=EDGE_CURVE('',#84,#88,#72,.T.);
#61=EDGE_CURVE('',#85,#90,#73,.T.);
#62=EDGE_CURVE('',#84,#86,#74,.T.);
#63=EDGE_CURVE('',#86,#89,#75,.T.);
#64=EDGE_CURVE('',#85,#87,#76,.T.);
#65=EDGE_CURVE('',#87,#91,#77,.T.);
#66=EDGE_CURVE('',#88,#89,#78,.T.);
#67=EDGE_CURVE('',#88,#84,#79,.T.);
#68=EDGE_CURVE('',#89,#86,#80,.T.);
#69=EDGE_CURVE('',#90,#91,#81,.T.);
#70=EDGE_CURVE('',#90,#85,#82,.T.);
#71=EDGE_CURVE('',#91,#87,#83,.T.);
#72=B_SPLINE_CURVE_WITH_KNOTS('',3,(#262,#263,#264,#265,#266,#267,#268),
 .UNSPECIFIED.,.F.,.F.,(4,3,4),(0.,1.,2.),.UNSPECIFIED.);
#73=B_SPLINE_CURVE_WITH_KNOTS('',3,(#269,#270,#271,#272,#273,#274,#275),
 .UNSPECIFIED.,.F.,.F.,(4,3,4),(-4.,-3.,-2.),.UNSPECIFIED.);
#74=B_SPLINE_CURVE_WITH_KNOTS('',1,(#276,#277),.UNSPECIFIED.,.F.,.F.,(2,
2),(0.,0.917176104162459),.UNSPECIFIED.);
#75=B_SPLINE_CURVE_WITH_KNOTS('',3,(#278,#279,#280,#281,#282,#283,#284),
 .UNSPECIFIED.,.F.,.F.,(4,3,4),(0.,1.,2.),.UNSPECIFIED.);
#76=B_SPLINE_CURVE_WITH_KNOTS('',1,(#285,#286),.UNSPECIFIED.,.F.,.F.,(2,
2),(0.,0.917176104162459),.UNSPECIFIED.);
#77=B_SPLINE_CURVE_WITH_KNOTS('',3,(#287,#288,#289,#290,#291,#292,#293),
 .UNSPECIFIED.,.F.,.F.,(4,3,4),(-4.,-3.,-2.),.UNSPECIFIED.);
#78=B_SPLINE_CURVE_WITH_KNOTS('',1,(#294,#295),.UNSPECIFIED.,.F.,.F.,(2,
2),(0.,0.917176104162459),.UNSPECIFIED.);
#79=B_SPLINE_CURVE_WITH_KNOTS('',3,(#296,#297,#298,#299,#300,#301,#302),
 .UNSPECIFIED.,.F.,.F.,(4,3,4),(2.,3.,4.),.UNSPECIFIED.);
#80=B_SPLINE_CURVE_WITH_KNOTS('',3,(#303,#304,#305,#306,#307,#308,#309),
 .UNSPECIFIED.,.F.,.F.,(4,3,4),(2.,3.,4.),.UNSPECIFIED.);
#81=B_SPLINE_CURVE_WITH_KNOTS('',1,(#310,#311),.UNSPECIFIED.,.F.,.F.,(2,
2),(0.,0.917176104162459),.UNSPECIFIED.);
#82=B_SPLINE_CURVE_WITH_KNOTS('',3,(#312,#313,#314,#315,#316,#317,#318),
 .UNSPECIFIED.,.F.,.F.,(4,3,4),(-2.,-1.,0.),.UNSPECIFIED.);
#83=B_SPLINE_CURVE_WITH_KNOTS('',3,(#319,#320,#321,#322,#323,#324,#325),
 .UNSPECIFIED.,.F.,.F.,(4,3,4),(-2.,-1.,0.),.UNSPECIFIED.);
#84=VERTEX_POINT('',#254);
#85=VERTEX_POINT('',#255);
#86=VERTEX_POINT('',#256);
#87=VERTEX_POINT('',#257);
#88=VERTEX_POINT('',#258);
#89=VERTEX_POINT('',#259);
#90=VERTEX_POINT('',#260);
#91=VERTEX_POINT('',#261);
#92=B_SPLINE_SURFACE_WITH_KNOTS('',3,1,((#197,#198),(#199,#200),(#201,#202),
(#203,#204),(#205,#206),(#207,#208),(#209,#210)),.UNSPECIFIED.,.F.,.F.,
 .F.,(4,3,4),(2,2),(-4.,-3.,-2.),(0.,0.917176104162459),.UNSPECIFIED.);
#93=B_SPLINE_SURFACE_WITH_KNOTS('',3,1,((#211,#212),(#213,#214),(#215,#216),
(#217,#218),(#219,#220),(#221,#222),(#223,#224)),.UNSPECIFIED.,.F.,.F.,
 .F.,(4,3,4),(2,2),(0.,1.,2.),(0.,0.917176104162459),.UNSPECIFIED.);
#94=B_SPLINE_SURFACE_WITH_KNOTS('',3,1,((#226,#227),(#228,#229),(#230,#231),
(#232,#233),(#234,#235),(#236,#237),(#238,#239)),.UNSPECIFIED.,.F.,.F.,
 .F.,(4,3,4),(2,2),(-2.,-1.,0.),(0.,0.917176104162459),.UNSPECIFIED.);
#95=B_SPLINE_SURFACE_WITH_KNOTS('',3,1,((#240,#241),(#242,#243),(#244,#245),
(#246,#247),(#248,#249),(#250,#251),(#252,#253)),.UNSPECIFIED.,.F.,.F.,
 .F.,(4,3,4),(2,2),(2.,3.,4.),(0.,0.917176104162459),.UNSPECIFIED.);
#96=PLANE('',#186);
#97=PLANE('',#187);
#98=SHAPE_DEFINITION_REPRESENTATION(#99,#184);
#99=PRODUCT_DEFINITION_SHAPE('Document','',#101);
#100=PRODUCT_DEFINITION_CONTEXT('3D Mechanical Parts',#173,'design');
#101=PRODUCT_DEFINITION('A','First version',#143,#100);
#102=DATE_TIME_ROLE('classification_date');
#103=DATE_TIME_ROLE('creation_date');
#104=APPLIED_DATE_AND_TIME_ASSIGNMENT(#128,#102,(#107));
#105=APPLIED_DATE_AND_TIME_ASSIGNMENT(#130,#103,(#101));
#106=SECURITY_CLASSIFICATION_LEVEL('unclassified');
#107=SECURITY_CLASSIFICATION('A','Security for version',#106);
#108=APPLIED_SECURITY_CLASSIFICATION_ASSIGNMENT(#107,(#143));
#109=APPROVAL_ROLE('Version approval');
#110=APPROVAL_ROLE('Version Security approval');
#111=APPROVAL_ROLE('Definition approval');
#112=APPROVAL_PERSON_ORGANIZATION(#161,#137,#109);
#113=APPROVAL_PERSON_ORGANIZATION(#162,#138,#110);
#114=APPROVAL_PERSON_ORGANIZATION(#165,#139,#111);
#115=COORDINATED_UNIVERSAL_TIME_OFFSET(5,0,.BEHIND.);
#116=LOCAL_TIME(0,0,0.,#115);
#117=LOCAL_TIME(0,0,0.,#115);
#118=LOCAL_TIME(0,0,0.,#115);
#119=LOCAL_TIME(0,0,0.,#115);
#120=LOCAL_TIME(0,0,0.,#115);
#121=CALENDAR_DATE(1999,1,1);
#122=CALENDAR_DATE(1999,1,1);
#123=CALENDAR_DATE(1999,1,1);
#124=CALENDAR_DATE(1999,1,1);
#125=CALENDAR_DATE(1999,1,1);
#126=DATE_AND_TIME(#121,#116);
#127=DATE_AND_TIME(#122,#117);
#128=DATE_AND_TIME(#123,#118);
#129=DATE_AND_TIME(#124,#119);
#130=DATE_AND_TIME(#125,#120);
#131=APPROVAL_DATE_TIME(#126,#137);
#132=APPROVAL_DATE_TIME(#127,#138);
#133=APPROVAL_DATE_TIME(#129,#139);
#134=APPROVAL_STATUS('not_yet_approved');
#135=APPROVAL_STATUS('not_yet_approved');
#136=APPROVAL_STATUS('approved');
#137=APPROVAL(#134,'Version approval');
#138=APPROVAL(#135,'Version Security approval');
#139=APPROVAL(#136,'Definition approval');
#140=APPLIED_APPROVAL_ASSIGNMENT(#137,(#143));
#141=APPLIED_APPROVAL_ASSIGNMENT(#138,(#107));
#142=APPLIED_APPROVAL_ASSIGNMENT(#139,(#101));
#143=PRODUCT_DEFINITION_FORMATION_WITH_SPECIFIED_SOURCE('A',
'First version',#175,.MADE.);
#144=PERSON_AND_ORGANIZATION_ROLE('design_owner');
#145=PERSON_AND_ORGANIZATION_ROLE('creator');
#146=PERSON_AND_ORGANIZATION_ROLE('design_supplier');
#147=PERSON_AND_ORGANIZATION_ROLE('classification_officer');
#148=PERSON_AND_ORGANIZATION_ROLE('creator');
#149=ORGANIZATION('STI','lab','lab');
#150=ORGANIZATION('STI','unknown','unknown');
#151=ORGANIZATION('STI','unknown','unknown');
#152=ORGANIZATION('STI','unknown','unknown');
#153=ORGANIZATION('STI','unknown','unknown');
#154=ORGANIZATION('STI','unknown','unknown');
#155=ORGANIZATION('STI','unknown','unknown');
#156=PERSON('1','Box','vc60',$,$,$);
#157=PERSON('2','last','first',$,$,$);
#158=PERSON('3','President','Mr.',$,$,$);
#159=PERSON_AND_ORGANIZATION(#156,#149);
#160=PERSON_AND_ORGANIZATION(#157,#150);
#161=PERSON_AND_ORGANIZATION(#158,#151);
#162=PERSON_AND_ORGANIZATION(#158,#152);
#163=PERSON_AND_ORGANIZATION(#158,#153);
#164=PERSON_AND_ORGANIZATION(#157,#154);
#165=PERSON_AND_ORGANIZATION(#158,#155);
#166=APPLIED_PERSON_AND_ORGANIZATION_ASSIGNMENT(#159,#144,(#175));
#167=APPLIED_PERSON_AND_ORGANIZATION_ASSIGNMENT(#160,#145,(#143));
#168=APPLIED_PERSON_AND_ORGANIZATION_ASSIGNMENT(#160,#146,(#143));
#169=APPLIED_PERSON_AND_ORGANIZATION_ASSIGNMENT(#163,#147,(#107));
#170=APPLIED_PERSON_AND_ORGANIZATION_ASSIGNMENT(#164,#148,(#101));
#171=PRODUCT_RELATED_PRODUCT_CATEGORY('detail','detail',(#175));
#172=APPLICATION_PROTOCOL_DEFINITION('International Standard',
'config_control_design',1994,#173);
#173=APPLICATION_CONTEXT(
'configuration controlled 3d designs of mechanical parts and assemblie
s');
#174=PRODUCT_CONTEXT('3D Mechanical Parts',#173,'mechanical');
#175=PRODUCT('Document','Document','Rhino converted to STEP',(#174));
#176=(
LENGTH_UNIT()
NAMED_UNIT(*)
SI_UNIT(.MILLI.,.METRE.)
);
#177=(
NAMED_UNIT(*)
PLANE_ANGLE_UNIT()
SI_UNIT($,.RADIAN.)
);
#178=DIMENSIONAL_EXPONENTS(0.,0.,0.,0.,0.,0.,0.);
#179=PLANE_ANGLE_MEASURE_WITH_UNIT(PLANE_ANGLE_MEASURE(0.01745329252),#177);
#180=(
CONVERSION_BASED_UNIT('DEGREES',#179)
NAMED_UNIT(#178)
PLANE_ANGLE_UNIT()
);
#181=(
NAMED_UNIT(*)
SI_UNIT($,.STERADIAN.)
SOLID_ANGLE_UNIT()
);
#182=UNCERTAINTY_MEASURE_WITH_UNIT(LENGTH_MEASURE(0.001),#176,
'DISTANCE_ACCURACY_VALUE',
'Maximum model space distance between geometric entities at asserted c
onnectivities');
#183=(
GEOMETRIC_REPRESENTATION_CONTEXT(3)
GLOBAL_UNCERTAINTY_ASSIGNED_CONTEXT((#182))
GLOBAL_UNIT_ASSIGNED_CONTEXT((#181,#180,#176))
REPRESENTATION_CONTEXT('ID1','3D')
);
#184=SHAPE_REPRESENTATION('Document',(#185,#188),#183);
#185=AXIS2_PLACEMENT_3D('',#195,#189,#190);
#186=AXIS2_PLACEMENT_3D('',#196,#191,$);
#187=AXIS2_PLACEMENT_3D('',#225,#192,$);
#188=AXIS2_PLACEMENT_3D('',#326,#193,#194);
#189=DIRECTION('',(0.,0.,1.));
#190=DIRECTION('',(1.,0.,0.));
#191=DIRECTION('',(0.,0.,-1.));
#192=DIRECTION('',(0.,0.,1.));
#193=DIRECTION('',(0.,0.,1.));
#194=DIRECTION('',(1.,0.,0.));
#195=CARTESIAN_POINT('',(0.,0.,0.));
#196=CARTESIAN_POINT('',(5.51784972563265,30.279262465595,4.76748043033339));
#197=CARTESIAN_POINT('',(31.2726841978549,17.2741661322616,4.76748043033339));
#198=CARTESIAN_POINT('',(31.2726841978549,17.2741661322616,6.76747993815801));
#199=CARTESIAN_POINT('',(31.2726841978549,24.3159633544838,4.76748043033339));
#200=CARTESIAN_POINT('',(31.2726841978549,24.3159633544838,6.76747993815801));
#201=CARTESIAN_POINT('',(25.5643869756326,30.0242605767061,4.76748043033339));
#202=CARTESIAN_POINT('',(25.5643869756326,30.0242605767061,6.76747993815801));
#203=CARTESIAN_POINT('',(18.5225897534104,30.0242605767061,4.76748043033339));
#204=CARTESIAN_POINT('',(18.5225897534104,30.0242605767061,6.76747993815801));
#205=CARTESIAN_POINT('',(11.481145308966,30.0242605767061,4.76748043033339));
#206=CARTESIAN_POINT('',(11.481145308966,30.0242605767061,6.76747993815801));
#207=CARTESIAN_POINT('',(5.77284808674376,24.3159633544838,4.76748043033339));
#208=CARTESIAN_POINT('',(5.77284808674376,24.3159633544838,6.76747993815801));
#209=CARTESIAN_POINT('',(5.77284808674376,17.2741661322616,4.76748043033339));
#210=CARTESIAN_POINT('',(5.77284808674376,17.2741661322616,6.76747993815801));
#211=CARTESIAN_POINT('',(29.022702808966,17.2741661322616,4.76748043033339));
#212=CARTESIAN_POINT('',(29.022702808966,17.2741661322616,6.76747993815801));
#213=CARTESIAN_POINT('',(29.022702808966,11.4752050211505,4.76748043033339));
#214=CARTESIAN_POINT('',(29.022702808966,11.4752050211505,6.76747993815801));
#215=CARTESIAN_POINT('',(24.3215861422993,6.77408835448384,4.76748043033339));
#216=CARTESIAN_POINT('',(24.3215861422993,6.77408835448384,6.76747993815801));
#217=CARTESIAN_POINT('',(18.5226250311882,6.77408835448384,4.76748043033339));
#218=CARTESIAN_POINT('',(18.5226250311882,6.77408835448384,6.76747993815801));
#219=CARTESIAN_POINT('',(12.7236639200771,6.77408835448384,4.76748043033339));
#220=CARTESIAN_POINT('',(12.7236639200771,6.77408835448384,6.76747993815801));
#221=CARTESIAN_POINT('',(8.02254725341044,11.4752050211505,4.76748043033339));
#222=CARTESIAN_POINT('',(8.02254725341044,11.4752050211505,6.76747993815801));
#223=CARTESIAN_POINT('',(8.02254725341044,17.2741661322616,4.76748043033339));
#224=CARTESIAN_POINT('',(8.02254725341044,17.2741661322616,6.76747993815801));
#225=CARTESIAN_POINT('',(5.51784972563265,30.279262465595,6.76747993815801));
#226=CARTESIAN_POINT('',(5.77284808674376,17.2741661322616,4.76748043033339));
#227=CARTESIAN_POINT('',(5.77284808674376,17.2741661322616,6.76747993815801));
#228=CARTESIAN_POINT('',(5.77284808674376,10.2323689100394,4.76748043033339));
#229=CARTESIAN_POINT('',(5.77284808674376,10.2323689100394,6.76747993815801));
#230=CARTESIAN_POINT('',(11.481145308966,4.52407168781718,4.76748043033339));
#231=CARTESIAN_POINT('',(11.481145308966,4.52407168781718,6.76747993815801));
#232=CARTESIAN_POINT('',(18.5225897534104,4.52407168781718,4.76748043033339));
#233=CARTESIAN_POINT('',(18.5225897534104,4.52407168781718,6.76747993815801));
#234=CARTESIAN_POINT('',(25.5643869756326,4.52407168781718,4.76748043033339));
#235=CARTESIAN_POINT('',(25.5643869756326,4.52407168781718,6.76747993815801));
#236=CARTESIAN_POINT('',(31.2726841978549,10.2323689100394,4.76748043033339));
#237=CARTESIAN_POINT('',(31.2726841978549,10.2323689100394,6.76747993815801));
#238=CARTESIAN_POINT('',(31.2726841978549,17.2741661322616,4.76748043033339));
#239=CARTESIAN_POINT('',(31.2726841978549,17.2741661322616,6.76747993815801));
#240=CARTESIAN_POINT('',(8.02254725341044,17.2741661322616,4.76748043033339));
#241=CARTESIAN_POINT('',(8.02254725341044,17.2741661322616,6.76747993815801));
#242=CARTESIAN_POINT('',(8.02254725341044,23.0731272433727,4.76748043033339));
#243=CARTESIAN_POINT('',(8.02254725341044,23.0731272433727,6.76747993815801));
#244=CARTESIAN_POINT('',(12.7236639200771,27.7742439100394,4.76748043033339));
#245=CARTESIAN_POINT('',(12.7236639200771,27.7742439100394,6.76747993815801));
#246=CARTESIAN_POINT('',(18.5226250311882,27.7742439100394,4.76748043033339));
#247=CARTESIAN_POINT('',(18.5226250311882,27.7742439100394,6.76747993815801));
#248=CARTESIAN_POINT('',(24.3215861422993,27.7742439100394,4.76748043033339));
#249=CARTESIAN_POINT('',(24.3215861422993,27.7742439100394,6.76747993815801));
#250=CARTESIAN_POINT('',(29.022702808966,23.0731272433727,4.76748043033339));
#251=CARTESIAN_POINT('',(29.022702808966,23.0731272433727,6.76747993815801));
#252=CARTESIAN_POINT('',(29.022702808966,17.2741661322616,4.76748043033339));
#253=CARTESIAN_POINT('',(29.022702808966,17.2741661322616,6.76747993815801));
#254=CARTESIAN_POINT('',(31.2726841978549,17.2741661322616,4.76748043033339));
#255=CARTESIAN_POINT('',(29.022702808966,17.2741661322616,4.76748043033339));
#256=CARTESIAN_POINT('',(31.2726841978549,17.2741661322616,6.76747993815801));
#257=CARTESIAN_POINT('',(29.022702808966,17.2741661322616,6.76747993815801));
#258=CARTESIAN_POINT('',(5.77284808674376,17.2741661322616,4.76748043033339));
#259=CARTESIAN_POINT('',(5.77284808674376,17.2741661322616,6.76747993815801));
#260=CARTESIAN_POINT('',(8.02254725341044,17.2741661322616,4.76748043033339));
#261=CARTESIAN_POINT('',(8.02254725341044,17.2741661322616,6.76747993815801));
#262=CARTESIAN_POINT('',(31.2726841978549,17.2741661322616,4.76748043033339));
#263=CARTESIAN_POINT('',(31.2726841978549,10.2323689100394,4.76748043033339));
#264=CARTESIAN_POINT('',(25.5643869756326,4.52407168781718,4.76748043033339));
#265=CARTESIAN_POINT('',(18.5225897534104,4.52407168781718,4.76748043033339));
#266=CARTESIAN_POINT('',(11.481145308966,4.52407168781718,4.76748043033339));
#267=CARTESIAN_POINT('',(5.77284808674376,10.2323689100394,4.76748043033339));
#268=CARTESIAN_POINT('',(5.77284808674376,17.2741661322616,4.76748043033339));
#269=CARTESIAN_POINT('',(29.022702808966,17.2741661322616,4.76748043033339));
#270=CARTESIAN_POINT('',(29.022702808966,23.0731272433727,4.76748043033339));
#271=CARTESIAN_POINT('',(24.3215861422993,27.7742439100394,4.76748043033339));
#272=CARTESIAN_POINT('',(18.5226250311882,27.7742439100394,4.76748043033339));
#273=CARTESIAN_POINT('',(12.7236639200771,27.7742439100394,4.76748043033339));
#274=CARTESIAN_POINT('',(8.02254725341044,23.0731272433727,4.76748043033339));
#275=CARTESIAN_POINT('',(8.02254725341044,17.2741661322616,4.76748043033339));
#276=CARTESIAN_POINT('',(31.2726841978549,17.2741661322616,4.76748043033339));
#277=CARTESIAN_POINT('',(31.2726841978549,17.2741661322616,6.76747993815801));
#278=CARTESIAN_POINT('',(31.2726841978549,17.2741661322616,6.76747993815801));
#279=CARTESIAN_POINT('',(31.2726841978549,10.2323689100394,6.76747993815801));
#280=CARTESIAN_POINT('',(25.5643869756326,4.52407168781718,6.76747993815801));
#281=CARTESIAN_POINT('',(18.5225897534104,4.52407168781718,6.76747993815801));
#282=CARTESIAN_POINT('',(11.481145308966,4.52407168781718,6.76747993815801));
#283=CARTESIAN_POINT('',(5.77284808674376,10.2323689100394,6.76747993815801));
#284=CARTESIAN_POINT('',(5.77284808674376,17.2741661322616,6.76747993815801));
#285=CARTESIAN_POINT('',(29.022702808966,17.2741661322616,4.76748043033339));
#286=CARTESIAN_POINT('',(29.022702808966,17.2741661322616,6.76747993815801));
#287=CARTESIAN_POINT('',(29.022702808966,17.2741661322616,6.76747993815801));
#288=CARTESIAN_POINT('',(29.022702808966,23.0731272433727,6.76747993815801));
#289=CARTESIAN_POINT('',(24.3215861422993,27.7742439100394,6.76747993815801));
#290=CARTESIAN_POINT('',(18.5226250311882,27.7742439100394,6.76747993815801));
#291=CARTESIAN_POINT('',(12.7236639200771,27.7742439100394,6.76747993815801));
#292=CARTESIAN_POINT('',(8.02254725341044,23.0731272433727,6.76747993815801));
#293=CARTESIAN_POINT('',(8.02254725341044,17.2741661322616,6.76747993815801));
#294=CARTESIAN_POINT('',(5.77284808674376,17.2741661322616,4.76748043033339));
#295=CARTESIAN_POINT('',(5.77284808674376,17.2741661322616,6.76747993815801));
#296=CARTESIAN_POINT('',(5.77284808674376,17.2741661322616,4.76748043033339));
#297=CARTESIAN_POINT('',(5.77284808674376,24.3159633544838,4.76748043033339));
#298=CARTESIAN_POINT('',(11.481145308966,30.0242605767061,4.76748043033339));
#299=CARTESIAN_POINT('',(18.5225897534104,30.0242605767061,4.76748043033339));
#300=CARTESIAN_POINT('',(25.5643869756326,30.0242605767061,4.76748043033339));
#301=CARTESIAN_POINT('',(31.2726841978549,24.3159633544838,4.76748043033339));
#302=CARTESIAN_POINT('',(31.2726841978549,17.2741661322616,4.76748043033339));
#303=CARTESIAN_POINT('',(5.77284808674376,17.2741661322616,6.76747993815801));
#304=CARTESIAN_POINT('',(5.77284808674376,24.3159633544838,6.76747993815801));
#305=CARTESIAN_POINT('',(11.481145308966,30.0242605767061,6.76747993815801));
#306=CARTESIAN_POINT('',(18.5225897534104,30.0242605767061,6.76747993815801));
#307=CARTESIAN_POINT('',(25.5643869756326,30.0242605767061,6.76747993815801));
#308=CARTESIAN_POINT('',(31.2726841978549,24.3159633544838,6.76747993815801));
#309=CARTESIAN_POINT('',(31.2726841978549,17.2741661322616,6.76747993815801));
#310=CARTESIAN_POINT('',(8.02254725341044,17.2741661322616,4.76748043033339));
#311=CARTESIAN_POINT('',(8.02254725341044,17.2741661322616,6.76747993815801));
#312=CARTESIAN_POINT('',(8.02254725341044,17.2741661322616,4.76748043033339));
#313=CARTESIAN_POINT('',(8.02254725341044,11.4752050211505,4.76748043033339));
#314=CARTESIAN_POINT('',(12.7236639200771,6.77408835448384,4.76748043033339));
#315=CARTESIAN_POINT('',(18.5226250311882,6.77408835448384,4.76748043033339));
#316=CARTESIAN_POINT('',(24.3215861422993,6.77408835448384,4.76748043033339));
#317=CARTESIAN_POINT('',(29.022702808966,11.4752050211505,4.76748043033339));
#318=CARTESIAN_POINT('',(29.022702808966,17.2741661322616,4.76748043033339));
#319=CARTESIAN_POINT('',(8.02254725341044,17.2741661322616,6.76747993815801));
#320=CARTESIAN_POINT('',(8.02254725341044,11.4752050211505,6.76747993815801));
#321=CARTESIAN_POINT('',(12.7236639200771,6.77408835448384,6.76747993815801));
#322=CARTESIAN_POINT('',(18.5226250311882,6.77408835448384,6.76747993815801));
#323=CARTESIAN_POINT('',(24.3215861422993,6.77408835448384,6.76747993815801));
#324=CARTESIAN_POINT('',(29.022702808966,11.4752050211505,6.76747993815801));
#325=CARTESIAN_POINT('',(29.022702808966,17.2741661322616,6.76747993815801));
#326=CARTESIAN_POINT('',(0.,0.,0.));
ENDSEC;
END-ISO-10303-21;
