ISO-10303-21;
HEADER;
FILE_DESCRIPTION(( 'MV.11SP00.M5.STEP' ), '1');
FILE_NAME( 'MV.11SP00.M5.STEP', '2018-10-03T17:28:45',( 'Sopra'),('sopra-pneumatic.com'), 'SwSTEP 2.0','SolidWorks 2009','' );
FILE_SCHEMA (( 'AUTOMOTIVE_DESIGN' ));
ENDSEC;

DATA;
#1 = DIRECTION ( 'NONE',  ( 2.922631943221794600E-016, 1.000000000000000000, -0.0000000000000000000 ) ) ;
#2 = SHAPE_DEFINITION_REPRESENTATION ( #335, #316 ) ;
#3 = FILL_AREA_STYLE ('',( #213 ) ) ;
#4 = ORIENTED_EDGE ( 'NONE', *, *, #250, .F. ) ;
#5 = ORIENTED_EDGE ( 'NONE', *, *, #208, .F. ) ;
#6 = CIRCLE ( 'NONE', #103, 2.850000000000009400 ) ;
#7 = CARTESIAN_POINT ( 'NONE',  ( 0.2500000000000078300, 23.00000000000000000, 0.0000000000000000000 ) ) ;
#8 = SURFACE_STYLE_FILL_AREA ( #129 ) ;
#9 = DIRECTION ( 'NONE',  ( 2.922631943221794600E-016, 1.000000000000000000, -0.0000000000000000000 ) ) ;
#10 = CARTESIAN_POINT ( 'NONE',  ( 2.500000000000009300, 0.7999999999999978200, 3.061616997868393500E-016 ) ) ;
#11 = DIRECTION ( 'NONE',  ( 2.922631943221794600E-016, 1.000000000000000000, -0.0000000000000000000 ) ) ;
#12 = EDGE_CURVE ( 'NONE', #296, #342, #319, .T. ) ;
#13 = SURFACE_SIDE_STYLE ('',( #8 ) ) ;
#14 = AXIS2_PLACEMENT_3D ( 'NONE', #283, #276, #83 ) ;
#15 = CARTESIAN_POINT ( 'NONE',  ( 7.000675494228059400E-032, 2.395332573594877700E-016, 0.0000000000000000000 ) ) ;
#16 = CARTESIAN_POINT ( 'NONE',  ( 1.285958055017589700E-015, 4.400000000000001200, 0.0000000000000000000 ) ) ;
#17 = ADVANCED_FACE ( 'NONE', ( #111 ), #290, .T. ) ;
#18 = ORIENTED_EDGE ( 'NONE', *, *, #164, .T. ) ;
#19 = ORIENTED_EDGE ( 'NONE', *, *, #90, .T. ) ;
#20 = DIRECTION ( 'NONE',  ( 2.922631943221794600E-016, 1.000000000000000000, -0.0000000000000000000 ) ) ;
#21 = UNCERTAINTY_MEASURE_WITH_UNIT (LENGTH_MEASURE( 1.000000000000000100E-005 ), #301, 'distance_accuracy_value', 'NONE');
#22 = DIRECTION ( 'NONE',  ( -1.000000000000000000, 0.0000000000000000000, 0.0000000000000000000 ) ) ;
#23 = ORIENTED_EDGE ( 'NONE', *, *, #302, .F. ) ;
#24 = EDGE_CURVE ( 'NONE', #256, #106, #101, .T. ) ;
#25 = LINE ( 'NONE', #95, #56 ) ;
#26 =( NAMED_UNIT ( * ) PLANE_ANGLE_UNIT ( ) SI_UNIT ( $, .RADIAN. ) );
#27 = EDGE_CURVE ( 'NONE', #55, #171, #25, .T. ) ;
#28 = VERTEX_POINT ( 'NONE', #155 ) ;
#29 = PRODUCT_CONTEXT ( 'NONE', #74, 'mechanical' ) ;
#30 = ORIENTED_EDGE ( 'NONE', *, *, #309, .T. ) ;
#31 = FACE_OUTER_BOUND ( 'NONE', #156, .T. ) ;
#32 = AXIS2_PLACEMENT_3D ( 'NONE', #357, #195, #330 ) ;
#33 = AXIS2_PLACEMENT_3D ( 'NONE', #162, #327, #128 ) ;
#34 = DIRECTION ( 'NONE',  ( -1.000000000000000000, 0.0000000000000000000, 0.0000000000000000000 ) ) ;
#35 = CARTESIAN_POINT ( 'NONE',  ( 2.500000000000009300, 4.000000000000000000, 0.0000000000000000000 ) ) ;
#36 = CARTESIAN_POINT ( 'NONE',  ( 1.169052777288717600E-015, 4.000000000000000000, 0.0000000000000000000 ) ) ;
#37 = ORIENTED_EDGE ( 'NONE', *, *, #250, .T. ) ;
#38 = FACE_OUTER_BOUND ( 'NONE', #116, .T. ) ;
#39 = VECTOR ( 'NONE', #259, 1000.000000000000000 ) ;
#40 = FILL_AREA_STYLE_COLOUR ( '', #142 ) ;
#41 = AXIS2_PLACEMENT_3D ( 'NONE', #73, #104, #123 ) ;
#42 = PLANE ( 'NONE',  #367 ) ;
#43 = CARTESIAN_POINT ( 'NONE',  ( 1.169052777288717600E-015, 4.000000000000000000, 0.0000000000000000000 ) ) ;
#44 = ORIENTED_EDGE ( 'NONE', *, *, #233, .F. ) ;
#45 = ADVANCED_FACE ( 'NONE', ( #80 ), #42, .F. ) ;
#46 = COLOUR_RGB ( '',0.3960784313725490000, 0.4784313725490195700, 0.8039215686274510100 ) ;
#47 = DIRECTION ( 'NONE',  ( 2.922631943221794600E-016, 1.000000000000000000, -0.0000000000000000000 ) ) ;
#48 = CIRCLE ( 'NONE', #264, 2.500000000000008900 ) ;
#49 = CYLINDRICAL_SURFACE ( 'NONE', #32, 2.500000000000008400 ) ;
#50 =( GEOMETRIC_REPRESENTATION_CONTEXT ( 3 ) GLOBAL_UNCERTAINTY_ASSIGNED_CONTEXT ( ( #21 ) ) GLOBAL_UNIT_ASSIGNED_CONTEXT ( ( #301, #260, #223 ) ) REPRESENTATION_CONTEXT ( 'NONE', 'WORKASPACE' ) );
#51 = AXIS2_PLACEMENT_3D ( 'NONE', #15, #11, #61 ) ;
#52 =( NAMED_UNIT ( * ) SI_UNIT ( $, .STERADIAN. ) SOLID_ANGLE_UNIT ( ) );
#53 = DIRECTION ( 'NONE',  ( 0.0000000000000000000, 0.0000000000000000000, 1.000000000000000000 ) ) ;
#54 = ORIENTED_EDGE ( 'NONE', *, *, #121, .F. ) ;
#55 = VERTEX_POINT ( 'NONE', #346 ) ;
#56 = VECTOR ( 'NONE', #166, 1000.000000000000100 ) ;
#57 = CIRCLE ( 'NONE', #226, 3.250000000000006700 ) ;
#58 = AXIS2_PLACEMENT_3D ( 'NONE', #97, #326, #277 ) ;
#59 = DIRECTION ( 'NONE',  ( 2.922631943221794600E-016, 1.000000000000000000, -0.0000000000000000000 ) ) ;
#60 = AXIS2_PLACEMENT_3D ( 'NONE', #212, #1, #184 ) ;
#61 = DIRECTION ( 'NONE',  ( -1.000000000000000000, 2.922631943221794600E-016, 0.0000000000000000000 ) ) ;
#62 = DIRECTION ( 'NONE',  ( -1.000000000000000000, 3.469446951953603300E-016, 0.0000000000000000000 ) ) ;
#63 = ORIENTED_EDGE ( 'NONE', *, *, #133, .F. ) ;
#64 = VERTEX_POINT ( 'NONE', #247 ) ;
#65 = CARTESIAN_POINT ( 'NONE',  ( -3.250000000000004900, 4.400000000000002100, 0.0000000000000000000 ) ) ;
#66 = LINE ( 'NONE', #299, #117 ) ;
#67 = TOROIDAL_SURFACE ( 'NONE', #185, 0.2500000000000023900, 3.000000000000000400 ) ;
#68 = FACE_OUTER_BOUND ( 'NONE', #79, .T. ) ;
#69 = DIRECTION ( 'NONE',  ( -1.000000000000000000, 2.922631943221795100E-016, 0.0000000000000000000 ) ) ;
#70 = DIRECTION ( 'NONE',  ( -1.000000000000000000, 0.0000000000000000000, 0.0000000000000000000 ) ) ;
#71 = AXIS2_PLACEMENT_3D ( 'NONE', #248, #110, #70 ) ;
#72 = AXIS2_PLACEMENT_3D ( 'NONE', #36, #221, #191 ) ;
#73 = CARTESIAN_POINT ( 'NONE',  ( -0.2499999999999965300, 19.99999999999999600, 0.0000000000000000000 ) ) ;
#74 = APPLICATION_CONTEXT ( 'automotive_design' ) ;
#75 = CARTESIAN_POINT ( 'NONE',  ( 3.250000000000006200, 20.00000000000000400, 3.980102097228903700E-016 ) ) ;
#76 = EDGE_LOOP ( 'NONE', ( #44, #170, #249, #199 ) ) ;
#77 = CARTESIAN_POINT ( 'NONE',  ( 5.854691731421723900E-015, 19.99999999999999600, 0.0000000000000000000 ) ) ;
#78 = PRODUCT_DEFINITION_CONTEXT ( 'detailed design', #205, 'design' ) ;
#79 = EDGE_LOOP ( 'NONE', ( #186, #341, #99, #217 ) ) ;
#80 = FACE_OUTER_BOUND ( 'NONE', #147, .T. ) ;
#81 = CIRCLE ( 'NONE', #292, 3.250000000000000400 ) ;
#82 = FACE_OUTER_BOUND ( 'NONE', #91, .T. ) ;
#83 = DIRECTION ( 'NONE',  ( -1.000000000000000000, 2.922631943221794600E-016, 0.0000000000000000000 ) ) ;
#84 = CARTESIAN_POINT ( 'NONE',  ( 5.845263886443590200E-015, 20.00000000000000400, 0.0000000000000000000 ) ) ;
#85 = AXIS2_PLACEMENT_3D ( 'NONE', #293, #122, #325 ) ;
#86 = AXIS2_PLACEMENT_3D ( 'NONE', #321, #118, #291 ) ;
#87 = ORIENTED_EDGE ( 'NONE', *, *, #114, .F. ) ;
#88 = FACE_OUTER_BOUND ( 'NONE', #137, .T. ) ;
#89 = VERTEX_POINT ( 'NONE', #10 ) ;
#90 = EDGE_CURVE ( 'NONE', #369, #64, #339, .T. ) ;
#91 = EDGE_LOOP ( 'NONE', ( #266, #348, #328, #5 ) ) ;
#92 = AXIS2_PLACEMENT_3D ( 'NONE', #349, #161, #69 ) ;
#93 = CARTESIAN_POINT ( 'NONE',  ( 6.722053469410127500E-015, 23.00000000000000000, 0.0000000000000000000 ) ) ;
#94 = ORIENTED_EDGE ( 'NONE', *, *, #311, .T. ) ;
#95 = CARTESIAN_POINT ( 'NONE',  ( -2.850000000000008100, 4.000000000000000900, 0.0000000000000000000 ) ) ;
#96 = CARTESIAN_POINT ( 'NONE',  ( 1.169052777288717600E-015, 4.000000000000000000, 0.0000000000000000000 ) ) ;
#97 = CARTESIAN_POINT ( 'NONE',  ( 0.0000000000000000000, 0.0000000000000000000, 0.0000000000000000000 ) ) ;
#98 = PLANE ( 'NONE',  #151 ) ;
#99 = ORIENTED_EDGE ( 'NONE', *, *, #372, .T. ) ;
#100 = DIRECTION ( 'NONE',  ( 0.7071067811865445800, 0.7071067811865503500, 8.659560562354895900E-017 ) ) ;
#101 = CIRCLE ( 'NONE', #85, 1.700000000000012200 ) ;
#102 =( LENGTH_UNIT ( ) NAMED_UNIT ( * ) SI_UNIT ( .MILLI., .METRE. ) );
#103 = AXIS2_PLACEMENT_3D ( 'NONE', #334, #108, #307 ) ;
#104 = DIRECTION ( 'NONE',  ( -0.0000000000000000000, 0.0000000000000000000, -1.000000000000000000 ) ) ;
#105 = CARTESIAN_POINT ( 'NONE',  ( -2.500000000000006700, 4.000000000000000900, 0.0000000000000000000 ) ) ;
#106 = VERTEX_POINT ( 'NONE', #189 ) ;
#107 = CONICAL_SURFACE ( 'NONE', #180, 2.850000000000009400, 0.7853981633974439500 ) ;
#108 = DIRECTION ( 'NONE',  ( 2.922631943221794600E-016, 1.000000000000000000, -0.0000000000000000000 ) ) ;
#109 = ADVANCED_FACE ( 'NONE', ( #202 ), #253, .F. ) ;
#110 = DIRECTION ( 'NONE',  ( 2.922631943221794600E-016, 1.000000000000000000, -0.0000000000000000000 ) ) ;
#111 = FACE_OUTER_BOUND ( 'NONE', #295, .T. ) ;
#112 = CONICAL_SURFACE ( 'NONE', #92, 1.700000000000012200, 0.7853981633974469500 ) ;
#113 = LINE ( 'NONE', #365, #39 ) ;
#114 = EDGE_CURVE ( 'NONE', #243, #89, #262, .T. ) ;
#115 = STYLED_ITEM ( 'NONE', ( #352 ), #316 ) ;
#116 = EDGE_LOOP ( 'NONE', ( #228, #306 ) ) ;
#117 = VECTOR ( 'NONE', #124, 999.9999999999998900 ) ;
#118 = DIRECTION ( 'NONE',  ( 2.922631943221794600E-016, 1.000000000000000000, -0.0000000000000000000 ) ) ;
#119 = AXIS2_PLACEMENT_3D ( 'NONE', #305, #136, #280 ) ;
#120 =( NAMED_UNIT ( * ) SI_UNIT ( $, .STERADIAN. ) SOLID_ANGLE_UNIT ( ) );
#121 = EDGE_CURVE ( 'NONE', #171, #296, #158, .T. ) ;
#122 = DIRECTION ( 'NONE',  ( 2.922631943221794600E-016, 1.000000000000000000, -0.0000000000000000000 ) ) ;
#123 = DIRECTION ( 'NONE',  ( -1.000000000000000000, 0.0000000000000000000, 0.0000000000000000000 ) ) ;
#124 = DIRECTION ( 'NONE',  ( -0.7071067811865463500, 0.7071067811865487900, 0.0000000000000000000 ) ) ;
#125 = ORIENTED_EDGE ( 'NONE', *, *, #340, .T. ) ;
#126 = VECTOR ( 'NONE', #222, 1000.000000000000000 ) ;
#127 = CIRCLE ( 'NONE', #119, 0.2500000000000010500 ) ;
#128 = DIRECTION ( 'NONE',  ( -1.000000000000000000, 3.035766082959401600E-016, 0.0000000000000000000 ) ) ;
#129 = FILL_AREA_STYLE ('',( #40 ) ) ;
#130 = EDGE_CURVE ( 'NONE', #371, #55, #362, .T. ) ;
#131 = DIRECTION ( 'NONE',  ( -1.000000000000000000, 3.469446951953603300E-016, 0.0000000000000000000 ) ) ;
#132 = PRESENTATION_LAYER_ASSIGNMENT (  '', '', ( #115 ) ) ;
#133 = EDGE_CURVE ( 'NONE', #256, #89, #183, .T. ) ;
#134 = DIRECTION ( 'NONE',  ( -1.000000000000000000, 2.922631943221795100E-016, 0.0000000000000000000 ) ) ;
#135 = AXIS2_PLACEMENT_3D ( 'NONE', #96, #271, #62 ) ;
#136 = DIRECTION ( 'NONE',  ( 2.922631943221794600E-016, 1.000000000000000000, -0.0000000000000000000 ) ) ;
#137 = EDGE_LOOP ( 'NONE', ( #125, #19, #139, #216 ) ) ;
#138 = EDGE_LOOP ( 'NONE', ( #360, #242 ) ) ;
#139 = ORIENTED_EDGE ( 'NONE', *, *, #286, .F. ) ;
#140 = DIRECTION ( 'NONE',  ( -1.000000000000000000, 2.668805347656620800E-016, 0.0000000000000000000 ) ) ;
#141 = LINE ( 'NONE', #344, #363 ) ;
#142 = COLOUR_RGB ( '',0.3960784313725490000, 0.4784313725490195700, 0.8039215686274510100 ) ;
#143 = ADVANCED_FACE ( 'NONE', ( #31 ), #112, .T. ) ;
#144 = DIRECTION ( 'NONE',  ( -1.000000000000000000, 3.035766082959401600E-016, 0.0000000000000000000 ) ) ;
#145 = AXIS2_PLACEMENT_3D ( 'NONE', #152, #270, #34 ) ;
#146 = ORIENTED_EDGE ( 'NONE', *, *, #24, .T. ) ;
#147 = EDGE_LOOP ( 'NONE', ( #192, #368 ) ) ;
#148 = VECTOR ( 'NONE', #300, 999.9999999999998900 ) ;
#149 = CIRCLE ( 'NONE', #204, 2.500000000000008000 ) ;
#150 = MECHANICAL_DESIGN_GEOMETRIC_PRESENTATION_REPRESENTATION (  '', ( #115 ), #178 ) ;
#151 = AXIS2_PLACEMENT_3D ( 'NONE', #35, #9, #190 ) ;
#152 = CARTESIAN_POINT ( 'NONE',  ( 6.722053469410127500E-015, 23.00000000000000000, 0.0000000000000000000 ) ) ;
#153 =( LENGTH_UNIT ( ) NAMED_UNIT ( * ) SI_UNIT ( .MILLI., .METRE. ) );
#154 = ORIENTED_EDGE ( 'NONE', *, *, #121, .T. ) ;
#155 = CARTESIAN_POINT ( 'NONE',  ( 3.250000000000008400, 4.400000000000000400, 3.980102097228906600E-016 ) ) ;
#156 = EDGE_LOOP ( 'NONE', ( #236, #282, #87, #182 ) ) ;
#157 = DIRECTION ( 'NONE',  ( -1.000000000000000000, 0.0000000000000000000, 0.0000000000000000000 ) ) ;
#158 = LINE ( 'NONE', #353, #126 ) ;
#159 = CIRCLE ( 'NONE', #241, 3.250000000000006700 ) ;
#160 = FACE_OUTER_BOUND ( 'NONE', #297, .T. ) ;
#161 = DIRECTION ( 'NONE',  ( 2.922631943221794600E-016, 1.000000000000000000, -0.0000000000000000000 ) ) ;
#162 = CARTESIAN_POINT ( 'NONE',  ( 2.338105554577433900E-016, 0.7999999999999986000, 0.0000000000000000000 ) ) ;
#163 = CARTESIAN_POINT ( 'NONE',  ( 2.850000000000010300, 3.999999999999999100, 3.735172737399437000E-016 ) ) ;
#164 = EDGE_CURVE ( 'NONE', #106, #243, #66, .T. ) ;
#165 = CARTESIAN_POINT ( 'NONE',  ( 1.285958055017589700E-015, 4.400000000000001200, 0.0000000000000000000 ) ) ;
#166 = DIRECTION ( 'NONE',  ( -0.7071067811865441300, 0.7071067811865507900, 0.0000000000000000000 ) ) ;
#167 = CARTESIAN_POINT ( 'NONE',  ( 0.0000000000000000000, 0.0000000000000000000, 0.0000000000000000000 ) ) ;
#168 = AXIS2_PLACEMENT_3D ( 'NONE', #93, #59, #157 ) ;
#169 = DIRECTION ( 'NONE',  ( 2.922631943221794600E-016, 1.000000000000000000, -0.0000000000000000000 ) ) ;
#170 = ORIENTED_EDGE ( 'NONE', *, *, #130, .T. ) ;
#171 = VERTEX_POINT ( 'NONE', #65 ) ;
#172 = CARTESIAN_POINT ( 'NONE',  ( 2.500000000000015100, 23.00000000000000000, 3.061616997868393000E-016 ) ) ;
#173 = DIRECTION ( 'NONE',  ( 2.922631943221794600E-016, 1.000000000000000000, -0.0000000000000000000 ) ) ;
#174 = ORIENTED_EDGE ( 'NONE', *, *, #27, .F. ) ;
#175 = ADVANCED_FACE ( 'NONE', ( #38, #193 ), #98, .F. ) ;
#176 = ORIENTED_EDGE ( 'NONE', *, *, #372, .F. ) ;
#177 = EDGE_CURVE ( 'NONE', #251, #263, #284, .T. ) ;
#178 =( GEOMETRIC_REPRESENTATION_CONTEXT ( 3 ) GLOBAL_UNCERTAINTY_ASSIGNED_CONTEXT ( ( #239 ) ) GLOBAL_UNIT_ASSIGNED_CONTEXT ( ( #102, #26, #52 ) ) REPRESENTATION_CONTEXT ( 'NONE', 'WORKASPACE' ) );
#179 = PRODUCT ( '0710000001A', '0710000001A', '', ( #29 ) ) ;
#180 = AXIS2_PLACEMENT_3D ( 'NONE', #294, #272, #215 ) ;
#181 = ORIENTED_EDGE ( 'NONE', *, *, #311, .F. ) ;
#182 = ORIENTED_EDGE ( 'NONE', *, *, #164, .F. ) ;
#183 = LINE ( 'NONE', #274, #148 ) ;
#184 = DIRECTION ( 'NONE',  ( -1.000000000000000000, 0.0000000000000000000, 0.0000000000000000000 ) ) ;
#185 = AXIS2_PLACEMENT_3D ( 'NONE', #77, #20, #227 ) ;
#186 = ORIENTED_EDGE ( 'NONE', *, *, #268, .F. ) ;
#187 = CYLINDRICAL_SURFACE ( 'NONE', #168, 3.250000000000003600 ) ;
#188 = SURFACE_SIDE_STYLE ('',( #207 ) ) ;
#189 = CARTESIAN_POINT ( 'NONE',  ( -1.700000000000012200, 4.968474303477087300E-016, 0.0000000000000000000 ) ) ;
#190 = DIRECTION ( 'NONE',  ( -1.000000000000000000, 2.922631943221794600E-016, 0.0000000000000000000 ) ) ;
#191 = DIRECTION ( 'NONE',  ( -1.000000000000000000, 3.043374519257546200E-016, 0.0000000000000000000 ) ) ;
#192 = ORIENTED_EDGE ( 'NONE', *, *, #286, .T. ) ;
#193 = FACE_BOUND ( 'NONE', #314, .T. ) ;
#194 = DIRECTION ( 'NONE',  ( 1.000000000000000000, 0.0000000000000000000, 1.224646799147353200E-016 ) ) ;
#195 = DIRECTION ( 'NONE',  ( 2.922631943221794600E-016, 1.000000000000000000, -0.0000000000000000000 ) ) ;
#196 = STYLED_ITEM ( 'NONE', ( #329 ), #201 ) ;
#197 = CARTESIAN_POINT ( 'NONE',  ( 1.700000000000012200, -4.968474303477087300E-016, 2.571758278209454300E-016 ) ) ;
#198 = ADVANCED_FACE ( 'NONE', ( #267 ), #107, .T. ) ;
#199 = ORIENTED_EDGE ( 'NONE', *, *, #309, .F. ) ;
#200 = APPLICATION_PROTOCOL_DEFINITION ( 'draft international standard', 'automotive_design', 1998, #74 ) ;
#201 = MANIFOLD_SOLID_BREP ( 'Rivoluzione1', #338 ) ;
#202 = FACE_OUTER_BOUND ( 'NONE', #138, .T. ) ;
#203 = FACE_OUTER_BOUND ( 'NONE', #288, .T. ) ;
#204 = AXIS2_PLACEMENT_3D ( 'NONE', #257, #356, #131 ) ;
#205 = APPLICATION_CONTEXT ( 'automotive_design' ) ;
#206 = EDGE_LOOP ( 'NONE', ( #350, #315, #23, #176 ) ) ;
#207 = SURFACE_STYLE_FILL_AREA ( #3 ) ;
#208 = EDGE_CURVE ( 'NONE', #64, #342, #317, .T. ) ;
#209 = CARTESIAN_POINT ( 'NONE',  ( 2.500000000000009300, 3.999999999999999100, 3.061616997868393000E-016 ) ) ;
#210 = EDGE_CURVE ( 'NONE', #369, #296, #324, .T. ) ;
#211 = PRESENTATION_LAYER_ASSIGNMENT (  '', '', ( #196 ) ) ;
#212 = CARTESIAN_POINT ( 'NONE',  ( 6.722053469410126700E-015, 22.99999999999999600, 0.0000000000000000000 ) ) ;
#213 = FILL_AREA_STYLE_COLOUR ( '', #46 ) ;
#214 = DIRECTION ( 'NONE',  ( -2.922631943221794600E-016, -1.000000000000000000, 0.0000000000000000000 ) ) ;
#215 = DIRECTION ( 'NONE',  ( -1.000000000000000000, 3.043374519257546200E-016, 0.0000000000000000000 ) ) ;
#216 = ORIENTED_EDGE ( 'NONE', *, *, #12, .F. ) ;
#217 = ORIENTED_EDGE ( 'NONE', *, *, #177, .F. ) ;
#218 = ORIENTED_EDGE ( 'NONE', *, *, #302, .T. ) ;
#219 = LINE ( 'NONE', #303, #351 ) ;
#220 = TOROIDAL_SURFACE ( 'NONE', #14, 0.2500000000000023900, 3.000000000000000400 ) ;
#221 = DIRECTION ( 'NONE',  ( 2.922631943221794600E-016, 1.000000000000000000, -0.0000000000000000000 ) ) ;
#222 = DIRECTION ( 'NONE',  ( 2.922631943221794600E-016, 1.000000000000000000, -0.0000000000000000000 ) ) ;
#223 =( NAMED_UNIT ( * ) SI_UNIT ( $, .STERADIAN. ) SOLID_ANGLE_UNIT ( ) );
#224 = DIRECTION ( 'NONE',  ( -1.224646799147353200E-016, 3.579191854352379700E-032, 1.000000000000000000 ) ) ;
#225 = DIRECTION ( 'NONE',  ( 2.922631943221794600E-016, 1.000000000000000000, -0.0000000000000000000 ) ) ;
#226 = AXIS2_PLACEMENT_3D ( 'NONE', #165, #169, #304 ) ;
#227 = DIRECTION ( 'NONE',  ( -1.000000000000000000, 2.922631943221794600E-016, 0.0000000000000000000 ) ) ;
#228 = ORIENTED_EDGE ( 'NONE', *, *, #258, .F. ) ;
#229 = ORIENTED_EDGE ( 'NONE', *, *, #340, .F. ) ;
#230 = DIRECTION ( 'NONE',  ( 2.922631943221794600E-016, 1.000000000000000000, -0.0000000000000000000 ) ) ;
#231 = ADVANCED_FACE ( 'NONE', ( #275 ), #265, .T. ) ;
#232 = ADVANCED_FACE ( 'NONE', ( #308 ), #187, .T. ) ;
#233 = EDGE_CURVE ( 'NONE', #371, #28, #141, .T. ) ;
#234 = AXIS2_PLACEMENT_3D ( 'NONE', #252, #53, #238 ) ;
#235 = MECHANICAL_DESIGN_GEOMETRIC_PRESENTATION_REPRESENTATION (  '', ( #196 ), #255 ) ;
#236 = ORIENTED_EDGE ( 'NONE', *, *, #355, .T. ) ;
#237 = CONICAL_SURFACE ( 'NONE', #279, 2.850000000000009400, 0.7853981633974439500 ) ;
#238 = DIRECTION ( 'NONE',  ( 1.000000000000000000, 0.0000000000000000000, 0.0000000000000000000 ) ) ;
#239 = UNCERTAINTY_MEASURE_WITH_UNIT (LENGTH_MEASURE( 1.000000000000000100E-005 ), #102, 'distance_accuracy_value', 'NONE');
#240 = CARTESIAN_POINT ( 'NONE',  ( -2.500000000000008400, 0.7999999999999993800, 0.0000000000000000000 ) ) ;
#241 = AXIS2_PLACEMENT_3D ( 'NONE', #16, #225, #140 ) ;
#242 = ORIENTED_EDGE ( 'NONE', *, *, #24, .F. ) ;
#243 = VERTEX_POINT ( 'NONE', #240 ) ;
#244 = VECTOR ( 'NONE', #281, 1000.000000000000000 ) ;
#245 = CYLINDRICAL_SURFACE ( 'NONE', #71, 3.250000000000003600 ) ;
#246 = DIRECTION ( 'NONE',  ( 1.000000000000000000, -2.922631943221794600E-016, 0.0000000000000000000 ) ) ;
#247 = CARTESIAN_POINT ( 'NONE',  ( 0.2500000000000077700, 22.99999999999999600, 2.143131898507869800E-016 ) ) ;
#248 = CARTESIAN_POINT ( 'NONE',  ( 6.722053469410127500E-015, 23.00000000000000000, 0.0000000000000000000 ) ) ;
#249 = ORIENTED_EDGE ( 'NONE', *, *, #27, .T. ) ;
#250 = EDGE_CURVE ( 'NONE', #28, #369, #219, .T. ) ;
#251 = VERTEX_POINT ( 'NONE', #209 ) ;
#252 = CARTESIAN_POINT ( 'NONE',  ( 0.0000000000000000000, 0.0000000000000000000, 0.0000000000000000000 ) ) ;
#253 = PLANE ( 'NONE',  #51 ) ;
#254 = PRODUCT_DEFINITION ( 'NON CONOSCIUTO', '', #269, #78 ) ;
#255 =( GEOMETRIC_REPRESENTATION_CONTEXT ( 3 ) GLOBAL_UNCERTAINTY_ASSIGNED_CONTEXT ( ( #347 ) ) GLOBAL_UNIT_ASSIGNED_CONTEXT ( ( #153, #323, #120 ) ) REPRESENTATION_CONTEXT ( 'NONE', 'WORKASPACE' ) );
#256 = VERTEX_POINT ( 'NONE', #197 ) ;
#257 = CARTESIAN_POINT ( 'NONE',  ( 1.169052777288717600E-015, 4.000000000000000000, 0.0000000000000000000 ) ) ;
#258 = EDGE_CURVE ( 'NONE', #55, #371, #6, .T. ) ;
#259 = DIRECTION ( 'NONE',  ( 2.922631943221794600E-016, 1.000000000000000000, -0.0000000000000000000 ) ) ;
#260 =( NAMED_UNIT ( * ) PLANE_ANGLE_UNIT ( ) SI_UNIT ( $, .RADIAN. ) );
#261 = ORIENTED_EDGE ( 'NONE', *, *, #320, .F. ) ;
#262 = CIRCLE ( 'NONE', #33, 2.500000000000008900 ) ;
#263 = VERTEX_POINT ( 'NONE', #105 ) ;
#264 = AXIS2_PLACEMENT_3D ( 'NONE', #337, #173, #144 ) ;
#265 = CYLINDRICAL_SURFACE ( 'NONE', #145, 2.500000000000008400 ) ;
#266 = ORIENTED_EDGE ( 'NONE', *, *, #90, .F. ) ;
#267 = FACE_OUTER_BOUND ( 'NONE', #76, .T. ) ;
#268 = EDGE_CURVE ( 'NONE', #89, #251, #298, .T. ) ;
#269 = PRODUCT_DEFINITION_FORMATION_WITH_SPECIFIED_SOURCE ( 'TUTTO', '', #179, .NOT_KNOWN. ) ;
#270 = DIRECTION ( 'NONE',  ( 2.922631943221794600E-016, 1.000000000000000000, -0.0000000000000000000 ) ) ;
#271 = DIRECTION ( 'NONE',  ( 2.922631943221794600E-016, 1.000000000000000000, -0.0000000000000000000 ) ) ;
#272 = DIRECTION ( 'NONE',  ( 2.922631943221794600E-016, 1.000000000000000000, -0.0000000000000000000 ) ) ;
#273 = EDGE_LOOP ( 'NONE', ( #4, #30, #154, #318 ) ) ;
#274 = CARTESIAN_POINT ( 'NONE',  ( 1.700000000000012200, -4.968474303477087300E-016, 2.081899558550515600E-016 ) ) ;
#275 = FACE_OUTER_BOUND ( 'NONE', #206, .T. ) ;
#276 = DIRECTION ( 'NONE',  ( 2.922631943221794600E-016, 1.000000000000000000, -0.0000000000000000000 ) ) ;
#277 = DIRECTION ( 'NONE',  ( -1.000000000000000000, 2.922631943221795100E-016, 0.0000000000000000000 ) ) ;
#278 = CARTESIAN_POINT ( 'NONE',  ( 0.2500000000000082700, 19.99999999999999600, 3.061616997868412600E-017 ) ) ;
#279 = AXIS2_PLACEMENT_3D ( 'NONE', #43, #364, #332 ) ;
#280 = DIRECTION ( 'NONE',  ( -1.000000000000000000, 0.0000000000000000000, 0.0000000000000000000 ) ) ;
#281 = DIRECTION ( 'NONE',  ( 2.922631943221794600E-016, 1.000000000000000000, -0.0000000000000000000 ) ) ;
#282 = ORIENTED_EDGE ( 'NONE', *, *, #133, .T. ) ;
#283 = CARTESIAN_POINT ( 'NONE',  ( 5.854691731421723900E-015, 19.99999999999999600, 0.0000000000000000000 ) ) ;
#284 = CIRCLE ( 'NONE', #135, 2.500000000000008000 ) ;
#285 = ADVANCED_FACE ( 'NONE', ( #88 ), #67, .T. ) ;
#286 = EDGE_CURVE ( 'NONE', #342, #64, #127, .T. ) ;
#287 = PRODUCT_RELATED_PRODUCT_CATEGORY ( 'part', '', ( #179 ) ) ;
#288 = EDGE_LOOP ( 'NONE', ( #322, #289, #181, #174 ) ) ;
#289 = ORIENTED_EDGE ( 'NONE', *, *, #233, .T. ) ;
#290 = CONICAL_SURFACE ( 'NONE', #58, 1.700000000000012200, 0.7853981633974469500 ) ;
#291 = DIRECTION ( 'NONE',  ( -1.000000000000000000, 0.0000000000000000000, 0.0000000000000000000 ) ) ;
#292 = AXIS2_PLACEMENT_3D ( 'NONE', #84, #47, #22 ) ;
#293 = CARTESIAN_POINT ( 'NONE',  ( 0.0000000000000000000, 0.0000000000000000000, 0.0000000000000000000 ) ) ;
#294 = CARTESIAN_POINT ( 'NONE',  ( 1.169052777288717600E-015, 4.000000000000000000, 0.0000000000000000000 ) ) ;
#295 = EDGE_LOOP ( 'NONE', ( #63, #146, #18, #261 ) ) ;
#296 = VERTEX_POINT ( 'NONE', #333 ) ;
#297 = EDGE_LOOP ( 'NONE', ( #94, #37, #229, #54 ) ) ;
#298 = LINE ( 'NONE', #172, #244 ) ;
#299 = CARTESIAN_POINT ( 'NONE',  ( -1.700000000000012200, 4.968474303477087300E-016, 0.0000000000000000000 ) ) ;
#300 = DIRECTION ( 'NONE',  ( 0.7071067811865468000, 0.7071067811865483500, 8.659560562354923000E-017 ) ) ;
#301 =( LENGTH_UNIT ( ) NAMED_UNIT ( * ) SI_UNIT ( .MILLI., .METRE. ) );
#302 = EDGE_CURVE ( 'NONE', #263, #251, #149, .T. ) ;
#303 = CARTESIAN_POINT ( 'NONE',  ( 3.250000000000010700, 23.00000000000000000, 3.980102097228902700E-016 ) ) ;
#304 = DIRECTION ( 'NONE',  ( -1.000000000000000000, 2.668805347656620800E-016, 0.0000000000000000000 ) ) ;
#305 = CARTESIAN_POINT ( 'NONE',  ( 6.722053469410126700E-015, 22.99999999999999600, 0.0000000000000000000 ) ) ;
#306 = ORIENTED_EDGE ( 'NONE', *, *, #130, .F. ) ;
#307 = DIRECTION ( 'NONE',  ( -1.000000000000000000, 3.043374519257546200E-016, 0.0000000000000000000 ) ) ;
#308 = FACE_OUTER_BOUND ( 'NONE', #273, .T. ) ;
#309 = EDGE_CURVE ( 'NONE', #28, #171, #57, .T. ) ;
#310 = CIRCLE ( 'NONE', #313, 1.700000000000012200 ) ;
#311 = EDGE_CURVE ( 'NONE', #171, #28, #159, .T. ) ;
#312 = CARTESIAN_POINT ( 'NONE',  ( -0.2499999999999943100, 22.99999999999999600, 0.0000000000000000000 ) ) ;
#313 = AXIS2_PLACEMENT_3D ( 'NONE', #167, #331, #134 ) ;
#314 = EDGE_LOOP ( 'NONE', ( #218, #359 ) ) ;
#315 = ORIENTED_EDGE ( 'NONE', *, *, #268, .T. ) ;
#316 = ADVANCED_BREP_SHAPE_REPRESENTATION ( '0710000001A', ( #201, #234 ), #50 ) ;
#317 = CIRCLE ( 'NONE', #60, 0.2500000000000010500 ) ;
#318 = ORIENTED_EDGE ( 'NONE', *, *, #210, .F. ) ;
#319 = CIRCLE ( 'NONE', #41, 3.000000000000000000 ) ;
#320 = EDGE_CURVE ( 'NONE', #89, #243, #48, .T. ) ;
#321 = CARTESIAN_POINT ( 'NONE',  ( 5.845263886443590200E-015, 20.00000000000000400, 0.0000000000000000000 ) ) ;
#322 = ORIENTED_EDGE ( 'NONE', *, *, #258, .T. ) ;
#323 =( NAMED_UNIT ( * ) PLANE_ANGLE_UNIT ( ) SI_UNIT ( $, .RADIAN. ) );
#324 = CIRCLE ( 'NONE', #86, 3.250000000000000400 ) ;
#325 = DIRECTION ( 'NONE',  ( -1.000000000000000000, 2.922631943221795100E-016, 0.0000000000000000000 ) ) ;
#326 = DIRECTION ( 'NONE',  ( 2.922631943221794600E-016, 1.000000000000000000, -0.0000000000000000000 ) ) ;
#327 = DIRECTION ( 'NONE',  ( 2.922631943221794600E-016, 1.000000000000000000, -0.0000000000000000000 ) ) ;
#328 = ORIENTED_EDGE ( 'NONE', *, *, #12, .T. ) ;
#329 = PRESENTATION_STYLE_ASSIGNMENT (( #345 ) ) ;
#330 = DIRECTION ( 'NONE',  ( -1.000000000000000000, 0.0000000000000000000, 0.0000000000000000000 ) ) ;
#331 = DIRECTION ( 'NONE',  ( 2.922631943221794600E-016, 1.000000000000000000, -0.0000000000000000000 ) ) ;
#332 = DIRECTION ( 'NONE',  ( -1.000000000000000000, 3.043374519257546200E-016, 0.0000000000000000000 ) ) ;
#333 = CARTESIAN_POINT ( 'NONE',  ( -3.249999999999994700, 20.00000000000000400, 0.0000000000000000000 ) ) ;
#334 = CARTESIAN_POINT ( 'NONE',  ( 1.169052777288717600E-015, 4.000000000000000000, 0.0000000000000000000 ) ) ;
#335 = PRODUCT_DEFINITION_SHAPE ( 'NONE', 'NONE',  #254 ) ;
#336 = ADVANCED_FACE ( 'NONE', ( #203 ), #237, .T. ) ;
#337 = CARTESIAN_POINT ( 'NONE',  ( 2.338105554577433900E-016, 0.7999999999999986000, 0.0000000000000000000 ) ) ;
#338 = CLOSED_SHELL ( 'NONE', ( #285, #361, #336, #231, #143, #109, #17, #358, #175, #198, #232, #366, #45 ) ) ;
#339 = CIRCLE ( 'NONE', #343, 3.000000000000000900 ) ;
#340 = EDGE_CURVE ( 'NONE', #296, #369, #81, .T. ) ;
#341 = ORIENTED_EDGE ( 'NONE', *, *, #320, .T. ) ;
#342 = VERTEX_POINT ( 'NONE', #312 ) ;
#343 = AXIS2_PLACEMENT_3D ( 'NONE', #278, #224, #194 ) ;
#344 = CARTESIAN_POINT ( 'NONE',  ( 2.850000000000010300, 3.999999999999999100, 3.490243377569967900E-016 ) ) ;
#345 = SURFACE_STYLE_USAGE ( .BOTH. , #188 ) ;
#346 = CARTESIAN_POINT ( 'NONE',  ( -2.850000000000008100, 4.000000000000000900, 0.0000000000000000000 ) ) ;
#347 = UNCERTAINTY_MEASURE_WITH_UNIT (LENGTH_MEASURE( 1.000000000000000100E-005 ), #153, 'distance_accuracy_value', 'NONE');
#348 = ORIENTED_EDGE ( 'NONE', *, *, #210, .T. ) ;
#349 = CARTESIAN_POINT ( 'NONE',  ( 0.0000000000000000000, 0.0000000000000000000, 0.0000000000000000000 ) ) ;
#350 = ORIENTED_EDGE ( 'NONE', *, *, #114, .T. ) ;
#351 = VECTOR ( 'NONE', #230, 1000.000000000000000 ) ;
#352 = PRESENTATION_STYLE_ASSIGNMENT (( #354 ) ) ;
#353 = CARTESIAN_POINT ( 'NONE',  ( -3.249999999999996900, 23.00000000000000000, 0.0000000000000000000 ) ) ;
#354 = SURFACE_STYLE_USAGE ( .BOTH. , #13 ) ;
#355 = EDGE_CURVE ( 'NONE', #106, #256, #310, .T. ) ;
#356 = DIRECTION ( 'NONE',  ( 2.922631943221794600E-016, 1.000000000000000000, -0.0000000000000000000 ) ) ;
#357 = CARTESIAN_POINT ( 'NONE',  ( 6.722053469410127500E-015, 23.00000000000000000, 0.0000000000000000000 ) ) ;
#358 = ADVANCED_FACE ( 'NONE', ( #68 ), #49, .T. ) ;
#359 = ORIENTED_EDGE ( 'NONE', *, *, #177, .T. ) ;
#360 = ORIENTED_EDGE ( 'NONE', *, *, #355, .F. ) ;
#361 = ADVANCED_FACE ( 'NONE', ( #160 ), #245, .T. ) ;
#362 = CIRCLE ( 'NONE', #72, 2.850000000000009400 ) ;
#363 = VECTOR ( 'NONE', #100, 1000.000000000000100 ) ;
#364 = DIRECTION ( 'NONE',  ( 2.922631943221794600E-016, 1.000000000000000000, -0.0000000000000000000 ) ) ;
#365 = CARTESIAN_POINT ( 'NONE',  ( -2.500000000000001300, 23.00000000000000000, 0.0000000000000000000 ) ) ;
#366 = ADVANCED_FACE ( 'NONE', ( #82 ), #220, .T. ) ;
#367 = AXIS2_PLACEMENT_3D ( 'NONE', #7, #214, #246 ) ;
#368 = ORIENTED_EDGE ( 'NONE', *, *, #208, .T. ) ;
#369 = VERTEX_POINT ( 'NONE', #75 ) ;
#370 = APPLICATION_PROTOCOL_DEFINITION ( 'draft international standard', 'automotive_design', 1998, #205 ) ;
#371 = VERTEX_POINT ( 'NONE', #163 ) ;
#372 = EDGE_CURVE ( 'NONE', #243, #263, #113, .T. ) ;
ENDSEC;
END-ISO-10303-21;
