ISO-10303-21;
HEADER;
FILE_DESCRIPTION(( 'MV.11SP00.34.STEP' ), '1');
FILE_NAME( 'MV.11SP00.34.STEP', '2018-10-03T17:28:45',( 'Sopra'),('sopra-pneumatic.com'), 'SwSTEP 2.0','SolidWorks 2009','' );
FILE_SCHEMA (( 'AUTOMOTIVE_DESIGN' ));
ENDSEC;

DATA;
#1 = APPLICATION_PROTOCOL_DEFINITION ( 'draft international standard', 'automotive_design', 1998, #2 ) ;
#2 = APPLICATION_CONTEXT ( 'automotive_design' ) ;
#3 = PRODUCT_CONTEXT ( 'NONE', #132, 'mechanical' ) ;
#4 = FILL_AREA_STYLE_COLOUR ( '', #342 ) ;
#5 = DIRECTION ( 'NONE',  ( 1.000000000000000000, 0.0000000000000000000, 0.0000000000000000000 ) ) ;
#6 = DIRECTION ( 'NONE',  ( 0.0000000000000000000, 0.0000000000000000000, 1.000000000000000000 ) ) ;
#7 =( NAMED_UNIT ( * ) SI_UNIT ( $, .STERADIAN. ) SOLID_ANGLE_UNIT ( ) );
#8 =( NAMED_UNIT ( * ) PLANE_ANGLE_UNIT ( ) SI_UNIT ( $, .RADIAN. ) );
#9 =( LENGTH_UNIT ( ) NAMED_UNIT ( * ) SI_UNIT ( .MILLI., .METRE. ) );
#10 = SURFACE_STYLE_USAGE ( .BOTH. , #11 ) ;
#11 = SURFACE_SIDE_STYLE ('',( #316 ) ) ;
#12 = FILL_AREA_STYLE ('',( #4 ) ) ;
#13 = MANIFOLD_SOLID_BREP ( 'Rivoluzione1', #351 ) ;
#14 = UNCERTAINTY_MEASURE_WITH_UNIT (LENGTH_MEASURE( 1.000000000000000100E-005 ), #9, 'distance_accuracy_value', 'NONE');
#15 = ADVANCED_BREP_SHAPE_REPRESENTATION ( '0710000006A', ( #13, #152 ), #158 ) ;
#16 = UNCERTAINTY_MEASURE_WITH_UNIT (LENGTH_MEASURE( 1.000000000000000100E-005 ), #23, 'distance_accuracy_value', 'NONE');
#17 = UNCERTAINTY_MEASURE_WITH_UNIT (LENGTH_MEASURE( 1.000000000000000100E-005 ), #129, 'distance_accuracy_value', 'NONE');
#18 = APPLICATION_PROTOCOL_DEFINITION ( 'draft international standard', 'automotive_design', 1998, #132 ) ;
#19 = DIRECTION ( 'NONE',  ( -1.000000000000000000, 0.0000000000000000000, 0.0000000000000000000 ) ) ;
#20 = DIRECTION ( 'NONE',  ( -1.000000000000000000, 0.0000000000000000000, 0.0000000000000000000 ) ) ;
#21 =( NAMED_UNIT ( * ) SI_UNIT ( $, .STERADIAN. ) SOLID_ANGLE_UNIT ( ) );
#22 =( NAMED_UNIT ( * ) PLANE_ANGLE_UNIT ( ) SI_UNIT ( $, .RADIAN. ) );
#23 =( LENGTH_UNIT ( ) NAMED_UNIT ( * ) SI_UNIT ( .MILLI., .METRE. ) );
#24 = DIRECTION ( 'NONE',  ( -1.000000000000000000, 2.835605681885164900E-017, 0.0000000000000000000 ) ) ;
#25 = CARTESIAN_POINT ( 'NONE',  ( 0.0000000000000000000, 0.0000000000000000000, 0.0000000000000000000 ) ) ;
#26 = PLANE ( 'NONE',  #157 ) ;
#27 = CARTESIAN_POINT ( 'NONE',  ( 13.00000000000001800, 15.50000000000000000, 0.0000000000000000000 ) ) ;
#28 = DIRECTION ( 'NONE',  ( 2.835605681885164900E-017, 1.000000000000000000, -0.0000000000000000000 ) ) ;
#29 = DIRECTION ( 'NONE',  ( 2.835605681885164900E-017, 1.000000000000000000, -0.0000000000000000000 ) ) ;
#30 = CARTESIAN_POINT ( 'NONE',  ( 7.703719777548943400E-031, 0.0000000000000000000, 0.0000000000000000000 ) ) ;
#31 = DIRECTION ( 'NONE',  ( -1.000000000000000000, 2.835605681885164300E-017, 0.0000000000000000000 ) ) ;
#32 = DIRECTION ( 'NONE',  ( 2.835605681885164900E-017, 1.000000000000000000, -0.0000000000000000000 ) ) ;
#33 = CARTESIAN_POINT ( 'NONE',  ( 4.395188806922011800E-016, 15.50000000000000000, 0.0000000000000000000 ) ) ;
#34 = DIRECTION ( 'NONE',  ( -1.000000000000000000, 0.0000000000000000000, 0.0000000000000000000 ) ) ;
#35 = CARTESIAN_POINT ( 'NONE',  ( 4.395188806922011800E-016, 15.50000000000000000, 0.0000000000000000000 ) ) ;
#36 = DIRECTION ( 'NONE',  ( -1.000000000000000000, 2.835605681885164900E-017, 0.0000000000000000000 ) ) ;
#37 = DIRECTION ( 'NONE',  ( 2.835605681885164900E-017, 1.000000000000000000, -0.0000000000000000000 ) ) ;
#38 = DIRECTION ( 'NONE',  ( -1.000000000000000000, 0.0000000000000000000, 0.0000000000000000000 ) ) ;
#39 = PLANE ( 'NONE',  #161 ) ;
#40 = DIRECTION ( 'NONE',  ( 2.835605681885164900E-017, 1.000000000000000000, -0.0000000000000000000 ) ) ;
#41 = DIRECTION ( 'NONE',  ( 2.835605681885164900E-017, 1.000000000000000000, -0.0000000000000000000 ) ) ;
#42 = CARTESIAN_POINT ( 'NONE',  ( 3.686287386450715100E-015, 130.0000000000000000, 0.0000000000000000000 ) ) ;
#43 = DIRECTION ( 'NONE',  ( 2.835605681885164900E-017, 1.000000000000000000, -0.0000000000000000000 ) ) ;
#44 = CARTESIAN_POINT ( 'NONE',  ( 4.824395749883667300E-033, 1.701363409131102000E-016, 0.0000000000000000000 ) ) ;
#45 = CARTESIAN_POINT ( 'NONE',  ( -19.25000000000001400, 130.0000000000000000, 0.0000000000000000000 ) ) ;
#46 = DIRECTION ( 'NONE',  ( 2.835605681885164900E-017, 1.000000000000000000, -0.0000000000000000000 ) ) ;
#47 = DIRECTION ( 'NONE',  ( 2.835605681885164900E-017, 1.000000000000000000, -0.0000000000000000000 ) ) ;
#48 = CARTESIAN_POINT ( 'NONE',  ( 7.703719777548943400E-031, 0.0000000000000000000, 0.0000000000000000000 ) ) ;
#49 = CARTESIAN_POINT ( 'NONE',  ( 5.104090227393302700E-016, 18.00000000000000400, 0.0000000000000000000 ) ) ;
#50 = DIRECTION ( 'NONE',  ( -1.000000000000000000, 2.835605681885164300E-017, 0.0000000000000000000 ) ) ;
#51 = DIRECTION ( 'NONE',  ( 2.835605681885164900E-017, 1.000000000000000000, -0.0000000000000000000 ) ) ;
#52 = CARTESIAN_POINT ( 'NONE',  ( 3.686287386450715100E-015, 130.0000000000000000, 0.0000000000000000000 ) ) ;
#53 = DIRECTION ( 'NONE',  ( -1.000000000000000000, 0.0000000000000000000, 0.0000000000000000000 ) ) ;
#54 = DIRECTION ( 'NONE',  ( -1.000000000000000000, 0.0000000000000000000, 0.0000000000000000000 ) ) ;
#55 = DIRECTION ( 'NONE',  ( 2.835605681885164900E-017, 1.000000000000000000, -0.0000000000000000000 ) ) ;
#56 = CARTESIAN_POINT ( 'NONE',  ( 3.686287386450715100E-015, 130.0000000000000000, 0.0000000000000000000 ) ) ;
#57 = DIRECTION ( 'NONE',  ( -1.000000000000000000, 2.835605681885164900E-017, 0.0000000000000000000 ) ) ;
#58 = DIRECTION ( 'NONE',  ( -1.000000000000000000, 0.0000000000000000000, 0.0000000000000000000 ) ) ;
#59 = CARTESIAN_POINT ( 'NONE',  ( 3.144186300207962900E-015, 111.0000000000000000, 0.0000000000000000000 ) ) ;
#60 = DIRECTION ( 'NONE',  ( 2.835605681885164900E-017, 1.000000000000000000, -0.0000000000000000000 ) ) ;
#61 = DIRECTION ( 'NONE',  ( -1.224646799147353200E-016, 3.472615421964714800E-033, 1.000000000000000000 ) ) ;
#62 = DIRECTION ( 'NONE',  ( -1.000000000000000000, 2.835605681885164900E-017, 0.0000000000000000000 ) ) ;
#63 = DIRECTION ( 'NONE',  ( 2.835605681885164900E-017, 1.000000000000000000, -0.0000000000000000000 ) ) ;
#64 = DIRECTION ( 'NONE',  ( 1.000000000000000000, 0.0000000000000000000, 1.224646799147353200E-016 ) ) ;
#65 = CARTESIAN_POINT ( 'NONE',  ( 3.144186300207962900E-015, 111.0000000000000000, 0.0000000000000000000 ) ) ;
#66 = DIRECTION ( 'NONE',  ( 2.835605681885164900E-017, 1.000000000000000000, -0.0000000000000000000 ) ) ;
#67 = DIRECTION ( 'NONE',  ( -0.0000000000000000000, 0.0000000000000000000, -1.000000000000000000 ) ) ;
#68 = DIRECTION ( 'NONE',  ( 2.835605681885164900E-017, 1.000000000000000000, -0.0000000000000000000 ) ) ;
#69 = CARTESIAN_POINT ( 'NONE',  ( 3.686287386450715100E-015, 130.0000000000000000, 0.0000000000000000000 ) ) ;
#70 = DIRECTION ( 'NONE',  ( -1.000000000000000000, 0.0000000000000000000, 0.0000000000000000000 ) ) ;
#71 = CARTESIAN_POINT ( 'NONE',  ( 3.686287386450715100E-015, 130.0000000000000000, 0.0000000000000000000 ) ) ;
#72 = CARTESIAN_POINT ( 'NONE',  ( 19.25000000000002100, 130.0000000000000000, 2.357445088358657100E-015 ) ) ;
#73 = DIRECTION ( 'NONE',  ( 1.000000000000000000, -2.835605681885164900E-017, 0.0000000000000000000 ) ) ;
#74 = DIRECTION ( 'NONE',  ( -2.835605681885164900E-017, -1.000000000000000000, 0.0000000000000000000 ) ) ;
#75 = DIRECTION ( 'NONE',  ( -1.000000000000000000, 0.0000000000000000000, 0.0000000000000000000 ) ) ;
#76 = DIRECTION ( 'NONE',  ( 2.835605681885164900E-017, 1.000000000000000000, -0.0000000000000000000 ) ) ;
#77 = DIRECTION ( 'NONE',  ( -1.000000000000000000, 0.0000000000000000000, 0.0000000000000000000 ) ) ;
#78 = CARTESIAN_POINT ( 'NONE',  ( 3.686287386450715100E-015, 130.0000000000000000, 0.0000000000000000000 ) ) ;
#79 = CARTESIAN_POINT ( 'NONE',  ( 0.2500000000000152100, 130.0000000000000000, 0.0000000000000000000 ) ) ;
#80 = CARTESIAN_POINT ( 'NONE',  ( 13.00000000000001800, 1.000000000000000400, 1.592040838891561500E-015 ) ) ;
#81 = DIRECTION ( 'NONE',  ( 2.835605681885164900E-017, 1.000000000000000000, -0.0000000000000000000 ) ) ;
#82 = CARTESIAN_POINT ( 'NONE',  ( 13.00000000000001800, 15.50000000000000000, 1.592040838891561500E-015 ) ) ;
#83 = CARTESIAN_POINT ( 'NONE',  ( 16.75000000000002800, 15.50000000000000000, 2.204364238465238600E-015 ) ) ;
#84 = DIRECTION ( 'NONE',  ( -1.000000000000000000, 0.0000000000000000000, 0.0000000000000000000 ) ) ;
#85 = PLANE ( 'NONE',  #173 ) ;
#86 = CARTESIAN_POINT ( 'NONE',  ( -0.2500000000000070500, 130.0000000000000000, 0.0000000000000000000 ) ) ;
#87 = DIRECTION ( 'NONE',  ( 2.835605681885164900E-017, 1.000000000000000000, -0.0000000000000000000 ) ) ;
#88 = CARTESIAN_POINT ( 'NONE',  ( 12.00000000000002300, -3.402726818262204100E-016, 1.530808498934193900E-015 ) ) ;
#89 = CARTESIAN_POINT ( 'NONE',  ( 3.147522306892534000E-015, 111.0000000000000100, 0.0000000000000000000 ) ) ;
#90 = CARTESIAN_POINT ( 'NONE',  ( 19.25000000000001800, 111.0000000000000100, 2.357445088358657100E-015 ) ) ;
#91 = CARTESIAN_POINT ( 'NONE',  ( -19.25000000000001100, 111.0000000000000100, 0.0000000000000000000 ) ) ;
#92 = CARTESIAN_POINT ( 'NONE',  ( -12.00000000000002300, 3.402726818262204100E-016, 0.0000000000000000000 ) ) ;
#93 = CARTESIAN_POINT ( 'NONE',  ( -16.75000000000002800, 15.50000000000000000, 0.0000000000000000000 ) ) ;
#94 = DIRECTION ( 'NONE',  ( -1.000000000000000000, 0.0000000000000000000, 0.0000000000000000000 ) ) ;
#95 = DIRECTION ( 'NONE',  ( 2.835605681885164900E-017, 1.000000000000000000, -0.0000000000000000000 ) ) ;
#96 = DIRECTION ( 'NONE',  ( 0.7071067811865455700, 0.7071067811865493500, 8.659560562354908200E-017 ) ) ;
#97 = CARTESIAN_POINT ( 'NONE',  ( 4.395188806922011800E-016, 15.50000000000000000, 0.0000000000000000000 ) ) ;
#98 = CARTESIAN_POINT ( 'NONE',  ( 19.25000000000001800, 18.00000000000000400, 2.357445088358657100E-015 ) ) ;
#99 = CARTESIAN_POINT ( 'NONE',  ( -19.25000000000001800, 18.00000000000000400, 0.0000000000000000000 ) ) ;
#100 = DIRECTION ( 'NONE',  ( -1.000000000000000000, 3.336006684570778400E-017, 0.0000000000000000000 ) ) ;
#101 = DIRECTION ( 'NONE',  ( 2.835605681885164900E-017, 1.000000000000000000, -0.0000000000000000000 ) ) ;
#102 = DIRECTION ( 'NONE',  ( -1.000000000000000000, 0.0000000000000000000, 0.0000000000000000000 ) ) ;
#103 = CARTESIAN_POINT ( 'NONE',  ( 0.2500000000000174900, 111.0000000000000000, 3.061616997868558700E-017 ) ) ;
#104 = CARTESIAN_POINT ( 'NONE',  ( 5.104090227393302700E-016, 18.00000000000000400, 0.0000000000000000000 ) ) ;
#105 = CARTESIAN_POINT ( 'NONE',  ( 2.835605681885193900E-017, 1.000000000000000900, 0.0000000000000000000 ) ) ;
#106 = CARTESIAN_POINT ( 'NONE',  ( -13.00000000000001800, 1.000000000000001300, 0.0000000000000000000 ) ) ;
#107 = CARTESIAN_POINT ( 'NONE',  ( -13.00000000000001800, 15.50000000000000000, 0.0000000000000000000 ) ) ;
#108 = DIRECTION ( 'NONE',  ( -1.000000000000000000, 2.835605681885164300E-017, 0.0000000000000000000 ) ) ;
#109 = DIRECTION ( 'NONE',  ( 2.835605681885164900E-017, 1.000000000000000000, -0.0000000000000000000 ) ) ;
#110 = CARTESIAN_POINT ( 'NONE',  ( 7.703719777548943400E-031, 0.0000000000000000000, 0.0000000000000000000 ) ) ;
#111 = DIRECTION ( 'NONE',  ( -1.000000000000000000, 0.0000000000000000000, 0.0000000000000000000 ) ) ;
#112 =( NAMED_UNIT ( * ) SI_UNIT ( $, .STERADIAN. ) SOLID_ANGLE_UNIT ( ) );
#113 = CARTESIAN_POINT ( 'NONE',  ( 0.2500000000000144300, 130.0000000000000000, 1.194030629168669900E-015 ) ) ;
#114 = DIRECTION ( 'NONE',  ( -0.7071067811865456900, 0.7071067811865493500, 0.0000000000000000000 ) ) ;
#115 = CARTESIAN_POINT ( 'NONE',  ( -12.00000000000002300, 3.402726818262204100E-016, 0.0000000000000000000 ) ) ;
#116 = DIRECTION ( 'NONE',  ( -1.000000000000000000, 2.835605681885164300E-017, 0.0000000000000000000 ) ) ;
#117 = DIRECTION ( 'NONE',  ( 2.835605681885164900E-017, 1.000000000000000000, -0.0000000000000000000 ) ) ;
#118 = CARTESIAN_POINT ( 'NONE',  ( 7.703719777548943400E-031, 0.0000000000000000000, 0.0000000000000000000 ) ) ;
#119 = CARTESIAN_POINT ( 'NONE',  ( 12.00000000000002300, -3.402726818262204100E-016, 1.469576158976826500E-015 ) ) ;
#120 = DIRECTION ( 'NONE',  ( 0.7071067811865456900, 0.7071067811865493500, 8.659560562354910700E-017 ) ) ;
#121 = DIRECTION ( 'NONE',  ( -1.000000000000000000, 0.0000000000000000000, 0.0000000000000000000 ) ) ;
#122 = DIRECTION ( 'NONE',  ( 2.835605681885164900E-017, 1.000000000000000000, -0.0000000000000000000 ) ) ;
#123 = CARTESIAN_POINT ( 'NONE',  ( 4.395188806922011800E-016, 15.50000000000000000, 0.0000000000000000000 ) ) ;
#124 = CARTESIAN_POINT ( 'NONE',  ( -13.00000000000001400, 130.0000000000000000, 0.0000000000000000000 ) ) ;
#125 = DIRECTION ( 'NONE',  ( 2.835605681885164900E-017, 1.000000000000000000, -0.0000000000000000000 ) ) ;
#126 = CARTESIAN_POINT ( 'NONE',  ( -0.2500000000000111600, 111.0000000000000000, 0.0000000000000000000 ) ) ;
#127 =( NAMED_UNIT ( * ) PLANE_ANGLE_UNIT ( ) SI_UNIT ( $, .RADIAN. ) );
#128 = CARTESIAN_POINT ( 'NONE',  ( 4.395188806922011800E-016, 15.50000000000000000, 0.0000000000000000000 ) ) ;
#129 =( LENGTH_UNIT ( ) NAMED_UNIT ( * ) SI_UNIT ( .MILLI., .METRE. ) );
#130 = SURFACE_STYLE_USAGE ( .BOTH. , #134 ) ;
#131 = DIRECTION ( 'NONE',  ( -1.000000000000000000, 3.336006684570778400E-017, 0.0000000000000000000 ) ) ;
#132 = APPLICATION_CONTEXT ( 'automotive_design' ) ;
#133 = DIRECTION ( 'NONE',  ( 2.835605681885164900E-017, 1.000000000000000000, -0.0000000000000000000 ) ) ;
#134 = SURFACE_SIDE_STYLE ('',( #356 ) ) ;
#135 = CARTESIAN_POINT ( 'NONE',  ( 2.835605681885193900E-017, 1.000000000000000900, 0.0000000000000000000 ) ) ;
#136 = FILL_AREA_STYLE ('',( #139 ) ) ;
#137 = CARTESIAN_POINT ( 'NONE',  ( 13.00000000000002100, 130.0000000000000000, 1.592040838891561500E-015 ) ) ;
#138 = DIRECTION ( 'NONE',  ( 2.835605681885164900E-017, 1.000000000000000000, -0.0000000000000000000 ) ) ;
#139 = FILL_AREA_STYLE_COLOUR ( '', #273 ) ;
#140 = DIRECTION ( 'NONE',  ( -0.7071067811865455700, 0.7071067811865493500, 0.0000000000000000000 ) ) ;
#141 = CARTESIAN_POINT ( 'NONE',  ( -16.75000000000002800, 15.50000000000000000, 0.0000000000000000000 ) ) ;
#142 = DIRECTION ( 'NONE',  ( -1.000000000000000000, 0.0000000000000000000, 0.0000000000000000000 ) ) ;
#143 = DIRECTION ( 'NONE',  ( 2.835605681885164900E-017, 1.000000000000000000, -0.0000000000000000000 ) ) ;
#144 = CARTESIAN_POINT ( 'NONE',  ( 4.395188806922011800E-016, 15.50000000000000000, 0.0000000000000000000 ) ) ;
#145 = DIRECTION ( 'NONE',  ( 2.835605681885164900E-017, 1.000000000000000000, -0.0000000000000000000 ) ) ;
#146 = CARTESIAN_POINT ( 'NONE',  ( 16.75000000000002800, 15.50000000000000000, 2.051283388571820000E-015 ) ) ;
#147 = DIRECTION ( 'NONE',  ( 2.835605681885164900E-017, 1.000000000000000000, -0.0000000000000000000 ) ) ;
#148 = DIRECTION ( 'NONE',  ( -1.000000000000000000, 0.0000000000000000000, 0.0000000000000000000 ) ) ;
#149 = DIRECTION ( 'NONE',  ( 2.835605681885164900E-017, 1.000000000000000000, -0.0000000000000000000 ) ) ;
#150 = CARTESIAN_POINT ( 'NONE',  ( 3.147522306892534000E-015, 111.0000000000000100, 0.0000000000000000000 ) ) ;
#151 = PRODUCT_DEFINITION ( 'NON CONOSCIUTO', '', #168, #359 ) ;
#152 = AXIS2_PLACEMENT_3D ( 'NONE', #25, #6, #5 ) ;
#153 =( GEOMETRIC_REPRESENTATION_CONTEXT ( 3 ) GLOBAL_UNCERTAINTY_ASSIGNED_CONTEXT ( ( #14 ) ) GLOBAL_UNIT_ASSIGNED_CONTEXT ( ( #9, #8, #7 ) ) REPRESENTATION_CONTEXT ( 'NONE', 'WORKASPACE' ) );
#154 = MECHANICAL_DESIGN_GEOMETRIC_PRESENTATION_REPRESENTATION (  '', ( #156 ), #153 ) ;
#155 = PRESENTATION_LAYER_ASSIGNMENT (  '', '', ( #156 ) ) ;
#156 = STYLED_ITEM ( 'NONE', ( #338 ), #15 ) ;
#157 = AXIS2_PLACEMENT_3D ( 'NONE', #27, #28, #24 ) ;
#158 =( GEOMETRIC_REPRESENTATION_CONTEXT ( 3 ) GLOBAL_UNCERTAINTY_ASSIGNED_CONTEXT ( ( #16 ) ) GLOBAL_UNIT_ASSIGNED_CONTEXT ( ( #23, #22, #21 ) ) REPRESENTATION_CONTEXT ( 'NONE', 'WORKASPACE' ) );
#159 = AXIS2_PLACEMENT_3D ( 'NONE', #30, #29, #31 ) ;
#160 = AXIS2_PLACEMENT_3D ( 'NONE', #33, #32, #34 ) ;
#161 = AXIS2_PLACEMENT_3D ( 'NONE', #44, #37, #36 ) ;
#162 = EDGE_CURVE ( 'NONE', #319, #239, #269, .T. ) ;
#163 = EDGE_CURVE ( 'NONE', #298, #220, #271, .T. ) ;
#164 = AXIS2_PLACEMENT_3D ( 'NONE', #35, #41, #38 ) ;
#165 = AXIS2_PLACEMENT_3D ( 'NONE', #52, #51, #54 ) ;
#166 = AXIS2_PLACEMENT_3D ( 'NONE', #56, #55, #58 ) ;
#167 = PRODUCT_RELATED_PRODUCT_CATEGORY ( 'part', '', ( #217 ) ) ;
#168 = PRODUCT_DEFINITION_FORMATION_WITH_SPECIFIED_SOURCE ( 'TUTTO', '', #217, .NOT_KNOWN. ) ;
#169 = AXIS2_PLACEMENT_3D ( 'NONE', #59, #63, #57 ) ;
#170 = AXIS2_PLACEMENT_3D ( 'NONE', #69, #68, #70 ) ;
#171 = AXIS2_PLACEMENT_3D ( 'NONE', #71, #81, #77 ) ;
#172 = AXIS2_PLACEMENT_3D ( 'NONE', #65, #66, #62 ) ;
#173 = AXIS2_PLACEMENT_3D ( 'NONE', #79, #74, #73 ) ;
#174 = EDGE_CURVE ( 'NONE', #311, #299, #270, .T. ) ;
#175 = EDGE_CURVE ( 'NONE', #218, #305, #268, .T. ) ;
#176 = AXIS2_PLACEMENT_3D ( 'NONE', #48, #46, #50 ) ;
#177 = AXIS2_PLACEMENT_3D ( 'NONE', #97, #95, #94 ) ;
#178 = AXIS2_PLACEMENT_3D ( 'NONE', #105, #101, #100 ) ;
#179 = AXIS2_PLACEMENT_3D ( 'NONE', #110, #109, #108 ) ;
#180 = AXIS2_PLACEMENT_3D ( 'NONE', #118, #117, #116 ) ;
#181 = AXIS2_PLACEMENT_3D ( 'NONE', #123, #122, #121 ) ;
#182 = AXIS2_PLACEMENT_3D ( 'NONE', #135, #133, #131 ) ;
#183 = AXIS2_PLACEMENT_3D ( 'NONE', #144, #143, #142 ) ;
#184 = AXIS2_PLACEMENT_3D ( 'NONE', #150, #149, #148 ) ;
#185 = AXIS2_PLACEMENT_3D ( 'NONE', #42, #40, #20 ) ;
#186 = AXIS2_PLACEMENT_3D ( 'NONE', #49, #47, #53 ) ;
#187 = AXIS2_PLACEMENT_3D ( 'NONE', #103, #61, #64 ) ;
#188 = AXIS2_PLACEMENT_3D ( 'NONE', #126, #67, #19 ) ;
#189 = AXIS2_PLACEMENT_3D ( 'NONE', #78, #76, #75 ) ;
#190 = AXIS2_PLACEMENT_3D ( 'NONE', #89, #87, #84 ) ;
#191 = AXIS2_PLACEMENT_3D ( 'NONE', #104, #145, #102 ) ;
#192 = AXIS2_PLACEMENT_3D ( 'NONE', #128, #125, #111 ) ;
#193 =( GEOMETRIC_REPRESENTATION_CONTEXT ( 3 ) GLOBAL_UNCERTAINTY_ASSIGNED_CONTEXT ( ( #17 ) ) GLOBAL_UNIT_ASSIGNED_CONTEXT ( ( #129, #127, #112 ) ) REPRESENTATION_CONTEXT ( 'NONE', 'WORKASPACE' ) );
#194 = MECHANICAL_DESIGN_GEOMETRIC_PRESENTATION_REPRESENTATION (  '', ( #196 ), #193 ) ;
#195 = PRESENTATION_LAYER_ASSIGNMENT (  '', '', ( #196 ) ) ;
#196 = STYLED_ITEM ( 'NONE', ( #272 ), #13 ) ;
#197 = EDGE_CURVE ( 'NONE', #299, #305, #267, .T. ) ;
#198 = EDGE_CURVE ( 'NONE', #311, #218, #265, .T. ) ;
#199 = EDGE_CURVE ( 'NONE', #220, #298, #266, .T. ) ;
#200 = EDGE_CURVE ( 'NONE', #305, #218, #263, .T. ) ;
#201 = EDGE_CURVE ( 'NONE', #298, #311, #261, .T. ) ;
#202 = EDGE_CURVE ( 'NONE', #299, #311, #260, .T. ) ;
#203 = EDGE_CURVE ( 'NONE', #220, #299, #258, .T. ) ;
#204 = EDGE_CURVE ( 'NONE', #239, #319, #257, .T. ) ;
#205 = EDGE_CURVE ( 'NONE', #319, #298, #262, .T. ) ;
#206 = EDGE_CURVE ( 'NONE', #239, #220, #254, .T. ) ;
#207 = EDGE_CURVE ( 'NONE', #318, #335, #252, .T. ) ;
#208 = EDGE_CURVE ( 'NONE', #335, #328, #255, .T. ) ;
#209 = EDGE_CURVE ( 'NONE', #291, #328, #249, .T. ) ;
#210 = EDGE_CURVE ( 'NONE', #318, #291, #250, .T. ) ;
#211 = EDGE_CURVE ( 'NONE', #327, #334, #247, .T. ) ;
#212 = EDGE_CURVE ( 'NONE', #334, #335, #246, .T. ) ;
#213 = EDGE_CURVE ( 'NONE', #327, #318, #243, .T. ) ;
#214 = EDGE_CURVE ( 'NONE', #334, #327, #244, .T. ) ;
#215 = EDGE_CURVE ( 'NONE', #335, #318, #238, .T. ) ;
#216 = EDGE_CURVE ( 'NONE', #328, #291, #237, .T. ) ;
#217 = PRODUCT ( '0710000006A', '0710000006A', '', ( #3 ) ) ;
#218 = VERTEX_POINT ( 'NONE', #113 ) ;
#219 = FACE_OUTER_BOUND ( 'NONE', #347, .T. ) ;
#220 = VERTEX_POINT ( 'NONE', #99 ) ;
#221 = CYLINDRICAL_SURFACE ( 'NONE', #165, 19.25000000000001800 ) ;
#222 = FACE_OUTER_BOUND ( 'NONE', #306, .T. ) ;
#223 = CYLINDRICAL_SURFACE ( 'NONE', #166, 19.25000000000001800 ) ;
#224 = FACE_OUTER_BOUND ( 'NONE', #355, .T. ) ;
#225 = FACE_OUTER_BOUND ( 'NONE', #343, .T. ) ;
#226 = FACE_OUTER_BOUND ( 'NONE', #349, .T. ) ;
#227 = FACE_OUTER_BOUND ( 'NONE', #353, .T. ) ;
#228 = TOROIDAL_SURFACE ( 'NONE', #169, 0.2500000000000143200, 19.00000000000000400 ) ;
#229 = CYLINDRICAL_SURFACE ( 'NONE', #170, 13.00000000000001800 ) ;
#230 = FACE_OUTER_BOUND ( 'NONE', #329, .T. ) ;
#231 = CYLINDRICAL_SURFACE ( 'NONE', #171, 13.00000000000001800 ) ;
#232 = FACE_OUTER_BOUND ( 'NONE', #357, .T. ) ;
#233 = FACE_OUTER_BOUND ( 'NONE', #300, .T. ) ;
#234 = FACE_OUTER_BOUND ( 'NONE', #345, .T. ) ;
#235 = SHAPE_DEFINITION_REPRESENTATION ( #358, #15 ) ;
#236 = TOROIDAL_SURFACE ( 'NONE', #172, 0.2500000000000143200, 19.00000000000000400 ) ;
#237 = CIRCLE ( 'NONE', #177, 13.00000000000001800 ) ;
#238 = CIRCLE ( 'NONE', #178, 13.00000000000001800 ) ;
#239 = VERTEX_POINT ( 'NONE', #93 ) ;
#240 = VECTOR ( 'NONE', #114, 1000.000000000000000 ) ;
#241 = FACE_OUTER_BOUND ( 'NONE', #341, .T. ) ;
#242 = VECTOR ( 'NONE', #120, 1000.000000000000000 ) ;
#243 = LINE ( 'NONE', #115, #240 ) ;
#244 = CIRCLE ( 'NONE', #179, 12.00000000000002300 ) ;
#245 = VECTOR ( 'NONE', #138, 1000.000000000000000 ) ;
#246 = LINE ( 'NONE', #119, #242 ) ;
#247 = CIRCLE ( 'NONE', #180, 12.00000000000002300 ) ;
#248 = VECTOR ( 'NONE', #147, 1000.000000000000000 ) ;
#249 = CIRCLE ( 'NONE', #181, 13.00000000000001800 ) ;
#250 = LINE ( 'NONE', #124, #245 ) ;
#251 = VECTOR ( 'NONE', #140, 1000.000000000000100 ) ;
#252 = CIRCLE ( 'NONE', #182, 13.00000000000001800 ) ;
#253 = VECTOR ( 'NONE', #96, 1000.000000000000100 ) ;
#254 = LINE ( 'NONE', #141, #251 ) ;
#255 = LINE ( 'NONE', #137, #248 ) ;
#256 = VECTOR ( 'NONE', #43, 1000.000000000000000 ) ;
#257 = CIRCLE ( 'NONE', #183, 16.75000000000002800 ) ;
#258 = LINE ( 'NONE', #45, #256 ) ;
#259 = VECTOR ( 'NONE', #60, 1000.000000000000000 ) ;
#260 = CIRCLE ( 'NONE', #184, 19.25000000000001400 ) ;
#261 = LINE ( 'NONE', #72, #259 ) ;
#262 = LINE ( 'NONE', #146, #253 ) ;
#263 = CIRCLE ( 'NONE', #185, 0.2500000000000107100 ) ;
#264 = CONICAL_SURFACE ( 'NONE', #160, 16.75000000000002800, 0.7853981633974456100 ) ;
#265 = CIRCLE ( 'NONE', #187, 19.00000000000000400 ) ;
#266 = CIRCLE ( 'NONE', #186, 19.25000000000001800 ) ;
#267 = CIRCLE ( 'NONE', #188, 19.00000000000000400 ) ;
#268 = CIRCLE ( 'NONE', #189, 0.2500000000000107100 ) ;
#269 = CIRCLE ( 'NONE', #192, 16.75000000000002800 ) ;
#270 = CIRCLE ( 'NONE', #190, 19.25000000000001400 ) ;
#271 = CIRCLE ( 'NONE', #191, 19.25000000000001800 ) ;
#272 = PRESENTATION_STYLE_ASSIGNMENT (( #130 ) ) ;
#273 = COLOUR_RGB ( '',0.3960784313725490000, 0.4784313725490195700, 0.8039215686274510100 ) ;
#274 = ORIENTED_EDGE ( 'NONE', *, *, #175, .F. ) ;
#275 = ORIENTED_EDGE ( 'NONE', *, *, #200, .T. ) ;
#276 = ORIENTED_EDGE ( 'NONE', *, *, #175, .T. ) ;
#277 = ORIENTED_EDGE ( 'NONE', *, *, #197, .T. ) ;
#278 = ORIENTED_EDGE ( 'NONE', *, *, #202, .T. ) ;
#279 = ORIENTED_EDGE ( 'NONE', *, *, #198, .T. ) ;
#280 = ORIENTED_EDGE ( 'NONE', *, *, #197, .F. ) ;
#281 = ORIENTED_EDGE ( 'NONE', *, *, #199, .T. ) ;
#282 = ORIENTED_EDGE ( 'NONE', *, *, #201, .T. ) ;
#283 = ORIENTED_EDGE ( 'NONE', *, *, #202, .F. ) ;
#284 = ORIENTED_EDGE ( 'NONE', *, *, #203, .F. ) ;
#285 = ORIENTED_EDGE ( 'NONE', *, *, #204, .T. ) ;
#286 = ORIENTED_EDGE ( 'NONE', *, *, #205, .T. ) ;
#287 = ORIENTED_EDGE ( 'NONE', *, *, #199, .F. ) ;
#288 = ORIENTED_EDGE ( 'NONE', *, *, #206, .F. ) ;
#289 = ORIENTED_EDGE ( 'NONE', *, *, #207, .T. ) ;
#290 = ORIENTED_EDGE ( 'NONE', *, *, #208, .T. ) ;
#291 = VERTEX_POINT ( 'NONE', #107 ) ;
#292 = ORIENTED_EDGE ( 'NONE', *, *, #209, .F. ) ;
#293 = ORIENTED_EDGE ( 'NONE', *, *, #200, .F. ) ;
#294 = ORIENTED_EDGE ( 'NONE', *, *, #207, .F. ) ;
#295 = ORIENTED_EDGE ( 'NONE', *, *, #174, .T. ) ;
#296 = ORIENTED_EDGE ( 'NONE', *, *, #162, .T. ) ;
#297 = ORIENTED_EDGE ( 'NONE', *, *, #215, .T. ) ;
#298 = VERTEX_POINT ( 'NONE', #98 ) ;
#299 = VERTEX_POINT ( 'NONE', #91 ) ;
#300 = EDGE_LOOP ( 'NONE', ( #275, #276 ) ) ;
#301 = ORIENTED_EDGE ( 'NONE', *, *, #210, .F. ) ;
#302 = ORIENTED_EDGE ( 'NONE', *, *, #213, .T. ) ;
#303 = ORIENTED_EDGE ( 'NONE', *, *, #209, .T. ) ;
#304 = ORIENTED_EDGE ( 'NONE', *, *, #174, .F. ) ;
#305 = VERTEX_POINT ( 'NONE', #86 ) ;
#306 = EDGE_LOOP ( 'NONE', ( #314, #323 ) ) ;
#307 = ORIENTED_EDGE ( 'NONE', *, *, #211, .T. ) ;
#308 = ORIENTED_EDGE ( 'NONE', *, *, #215, .F. ) ;
#309 = ORIENTED_EDGE ( 'NONE', *, *, #216, .T. ) ;
#310 = ORIENTED_EDGE ( 'NONE', *, *, #198, .F. ) ;
#311 = VERTEX_POINT ( 'NONE', #90 ) ;
#312 = EDGE_LOOP ( 'NONE', ( #346, #348 ) ) ;
#313 = ORIENTED_EDGE ( 'NONE', *, *, #206, .T. ) ;
#314 = ORIENTED_EDGE ( 'NONE', *, *, #211, .F. ) ;
#315 = ORIENTED_EDGE ( 'NONE', *, *, #210, .T. ) ;
#316 = SURFACE_STYLE_FILL_AREA ( #12 ) ;
#317 = ORIENTED_EDGE ( 'NONE', *, *, #163, .F. ) ;
#318 = VERTEX_POINT ( 'NONE', #106 ) ;
#319 = VERTEX_POINT ( 'NONE', #83 ) ;
#320 = EDGE_LOOP ( 'NONE', ( #337, #339, #302, #308 ) ) ;
#321 = FACE_OUTER_BOUND ( 'NONE', #320, .T. ) ;
#322 = CONICAL_SURFACE ( 'NONE', #176, 12.00000000000002300, 0.7853981633974457300 ) ;
#323 = ORIENTED_EDGE ( 'NONE', *, *, #214, .F. ) ;
#324 = ORIENTED_EDGE ( 'NONE', *, *, #216, .F. ) ;
#325 = FACE_BOUND ( 'NONE', #350, .T. ) ;
#326 = ORIENTED_EDGE ( 'NONE', *, *, #201, .F. ) ;
#327 = VERTEX_POINT ( 'NONE', #92 ) ;
#328 = VERTEX_POINT ( 'NONE', #82 ) ;
#329 = EDGE_LOOP ( 'NONE', ( #281, #282, #283, #284 ) ) ;
#330 = ORIENTED_EDGE ( 'NONE', *, *, #212, .T. ) ;
#331 = CONICAL_SURFACE ( 'NONE', #164, 16.75000000000002800, 0.7853981633974456100 ) ;
#332 = ORIENTED_EDGE ( 'NONE', *, *, #208, .F. ) ;
#333 = ORIENTED_EDGE ( 'NONE', *, *, #205, .F. ) ;
#334 = VERTEX_POINT ( 'NONE', #88 ) ;
#335 = VERTEX_POINT ( 'NONE', #80 ) ;
#336 = FACE_OUTER_BOUND ( 'NONE', #312, .T. ) ;
#337 = ORIENTED_EDGE ( 'NONE', *, *, #212, .F. ) ;
#338 = PRESENTATION_STYLE_ASSIGNMENT (( #10 ) ) ;
#339 = ORIENTED_EDGE ( 'NONE', *, *, #214, .T. ) ;
#340 = ORIENTED_EDGE ( 'NONE', *, *, #213, .F. ) ;
#341 = EDGE_LOOP ( 'NONE', ( #289, #290, #292, #301 ) ) ;
#342 = COLOUR_RGB ( '',0.3960784313725490000, 0.4784313725490195700, 0.8039215686274510100 ) ;
#343 = EDGE_LOOP ( 'NONE', ( #326, #354, #352, #304 ) ) ;
#344 = CONICAL_SURFACE ( 'NONE', #159, 12.00000000000002300, 0.7853981633974457300 ) ;
#345 = EDGE_LOOP ( 'NONE', ( #332, #297, #315, #324 ) ) ;
#346 = ORIENTED_EDGE ( 'NONE', *, *, #204, .F. ) ;
#347 = EDGE_LOOP ( 'NONE', ( #333, #296, #313, #317 ) ) ;
#348 = ORIENTED_EDGE ( 'NONE', *, *, #162, .F. ) ;
#349 = EDGE_LOOP ( 'NONE', ( #285, #286, #287, #288 ) ) ;
#350 = EDGE_LOOP ( 'NONE', ( #303, #309 ) ) ;
#351 = CLOSED_SHELL ( 'NONE', ( #364, #366, #369, #362, #367, #368, #371, #361, #372, #370, #365, #363, #360 ) ) ;
#352 = ORIENTED_EDGE ( 'NONE', *, *, #203, .T. ) ;
#353 = EDGE_LOOP ( 'NONE', ( #278, #279, #293, #280 ) ) ;
#354 = ORIENTED_EDGE ( 'NONE', *, *, #163, .T. ) ;
#355 = EDGE_LOOP ( 'NONE', ( #307, #330, #294, #340 ) ) ;
#356 = SURFACE_STYLE_FILL_AREA ( #136 ) ;
#357 = EDGE_LOOP ( 'NONE', ( #310, #295, #277, #274 ) ) ;
#358 = PRODUCT_DEFINITION_SHAPE ( 'NONE', 'NONE',  #151 ) ;
#359 = PRODUCT_DEFINITION_CONTEXT ( 'detailed design', #2, 'design' ) ;
#360 = ADVANCED_FACE ( 'NONE', ( #233 ), #85, .F. ) ;
#361 = ADVANCED_FACE ( 'NONE', ( #234 ), #231, .T. ) ;
#362 = ADVANCED_FACE ( 'NONE', ( #241 ), #229, .T. ) ;
#363 = ADVANCED_FACE ( 'NONE', ( #232 ), #236, .T. ) ;
#364 = ADVANCED_FACE ( 'NONE', ( #227 ), #228, .T. ) ;
#365 = ADVANCED_FACE ( 'NONE', ( #225 ), #223, .T. ) ;
#366 = ADVANCED_FACE ( 'NONE', ( #230 ), #221, .T. ) ;
#367 = ADVANCED_FACE ( 'NONE', ( #224 ), #322, .T. ) ;
#368 = ADVANCED_FACE ( 'NONE', ( #222 ), #39, .F. ) ;
#369 = ADVANCED_FACE ( 'NONE', ( #226 ), #331, .T. ) ;
#370 = ADVANCED_FACE ( 'NONE', ( #219 ), #264, .T. ) ;
#371 = ADVANCED_FACE ( 'NONE', ( #321 ), #344, .T. ) ;
#372 = ADVANCED_FACE ( 'NONE', ( #336, #325 ), #26, .F. ) ;
ENDSEC;
END-ISO-10303-21;
