ISO-10303-21;
HEADER;
FILE_DESCRIPTION(( 'MV.11SP00.18.STEP' ), '1');
FILE_NAME( 'MV.11SP00.18.STEP', '2018-10-03T17:28:45',( 'Sopra'),('sopra-pneumatic.com'), 'SwSTEP 2.0','SolidWorks 2009','' );
FILE_SCHEMA (( 'AUTOMOTIVE_DESIGN' ));
ENDSEC;

DATA;
#1 = ADVANCED_BREP_SHAPE_REPRESENTATION ( '0710000002A', ( #2, #151 ), #161 ) ;
#2 = MANIFOLD_SOLID_BREP ( 'Rivoluzione1', #225 ) ;
#3 = UNCERTAINTY_MEASURE_WITH_UNIT (LENGTH_MEASURE( 1.000000000000000100E-005 ), #30, 'distance_accuracy_value', 'NONE');
#4 = UNCERTAINTY_MEASURE_WITH_UNIT (LENGTH_MEASURE( 1.000000000000000100E-005 ), #150, 'distance_accuracy_value', 'NONE');
#5 = UNCERTAINTY_MEASURE_WITH_UNIT (LENGTH_MEASURE( 1.000000000000000100E-005 ), #42, 'distance_accuracy_value', 'NONE');
#6 = DIRECTION ( 'NONE',  ( 3.188829919075013100E-017, 1.000000000000000000, -0.0000000000000000000 ) ) ;
#7 = DIRECTION ( 'NONE',  ( -1.000000000000000000, 0.0000000000000000000, 0.0000000000000000000 ) ) ;
#8 = DIRECTION ( 'NONE',  ( 3.188829919075013100E-017, 1.000000000000000000, -0.0000000000000000000 ) ) ;
#9 = DIRECTION ( 'NONE',  ( 3.188829919075013100E-017, 1.000000000000000000, -0.0000000000000000000 ) ) ;
#10 = CARTESIAN_POINT ( 'NONE',  ( 4.800000000000005200, 1.000000000000000700, 5.878304635907300100E-016 ) ) ;
#11 = CARTESIAN_POINT ( 'NONE',  ( 6.750000000000004400, 27.50000000000000000, 8.266365894244639300E-016 ) ) ;
#12 = FILL_AREA_STYLE ('',( #64 ) ) ;
#13 = DIRECTION ( 'NONE',  ( 0.7071067811865460200, 0.7071067811865489100, 8.659560562354913100E-017 ) ) ;
#14 = CARTESIAN_POINT ( 'NONE',  ( -6.750000000000002700, 27.50000000000000000, 0.0000000000000000000 ) ) ;
#15 = DIRECTION ( 'NONE',  ( -0.0000000000000000000, 0.0000000000000000000, -1.000000000000000000 ) ) ;
#16 = DIRECTION ( 'NONE',  ( 3.188829919075013100E-017, 1.000000000000000000, -0.0000000000000000000 ) ) ;
#17 = DIRECTION ( 'NONE',  ( 3.188829919075013100E-017, 1.000000000000000000, -0.0000000000000000000 ) ) ;
#18 = APPLICATION_PROTOCOL_DEFINITION ( 'draft international standard', 'automotive_design', 1998, #20 ) ;
#19 = DIRECTION ( 'NONE',  ( 3.188829919075013100E-017, 1.000000000000000000, -0.0000000000000000000 ) ) ;
#20 = APPLICATION_CONTEXT ( 'automotive_design' ) ;
#21 =( NAMED_UNIT ( * ) SI_UNIT ( $, .STERADIAN. ) SOLID_ANGLE_UNIT ( ) );
#22 = PRODUCT_CONTEXT ( 'NONE', #37, 'mechanical' ) ;
#23 = DIRECTION ( 'NONE',  ( 1.000000000000000000, 0.0000000000000000000, 0.0000000000000000000 ) ) ;
#24 = DIRECTION ( 'NONE',  ( 0.0000000000000000000, 0.0000000000000000000, 1.000000000000000000 ) ) ;
#25 = DIRECTION ( 'NONE',  ( -1.000000000000000000, 0.0000000000000000000, 0.0000000000000000000 ) ) ;
#26 = CARTESIAN_POINT ( 'NONE',  ( 3.188829919075002000E-017, 1.000000000000000900, 0.0000000000000000000 ) ) ;
#27 =( NAMED_UNIT ( * ) SI_UNIT ( $, .STERADIAN. ) SOLID_ANGLE_UNIT ( ) );
#28 = DIRECTION ( 'NONE',  ( 3.188829919075013100E-017, 1.000000000000000000, -0.0000000000000000000 ) ) ;
#29 =( NAMED_UNIT ( * ) PLANE_ANGLE_UNIT ( ) SI_UNIT ( $, .RADIAN. ) );
#30 =( LENGTH_UNIT ( ) NAMED_UNIT ( * ) SI_UNIT ( .MILLI., .METRE. ) );
#31 = SURFACE_STYLE_USAGE ( .BOTH. , #32 ) ;
#32 = SURFACE_SIDE_STYLE ('',( #301 ) ) ;
#33 = DIRECTION ( 'NONE',  ( -1.000000000000000000, 4.517509052022930400E-017, 0.0000000000000000000 ) ) ;
#34 = FILL_AREA_STYLE ('',( #36 ) ) ;
#35 = DIRECTION ( 'NONE',  ( 3.188829919075013100E-017, 1.000000000000000000, -0.0000000000000000000 ) ) ;
#36 = FILL_AREA_STYLE_COLOUR ( '', #315 ) ;
#37 = APPLICATION_CONTEXT ( 'automotive_design' ) ;
#38 = APPLICATION_PROTOCOL_DEFINITION ( 'draft international standard', 'automotive_design', 1998, #37 ) ;
#39 = DIRECTION ( 'NONE',  ( -1.000000000000000000, 3.188829919075012500E-017, 0.0000000000000000000 ) ) ;
#40 =( NAMED_UNIT ( * ) SI_UNIT ( $, .STERADIAN. ) SOLID_ANGLE_UNIT ( ) );
#41 =( NAMED_UNIT ( * ) PLANE_ANGLE_UNIT ( ) SI_UNIT ( $, .RADIAN. ) );
#42 =( LENGTH_UNIT ( ) NAMED_UNIT ( * ) SI_UNIT ( .MILLI., .METRE. ) );
#43 = DIRECTION ( 'NONE',  ( -1.000000000000000000, 3.188829919075013100E-017, 0.0000000000000000000 ) ) ;
#44 = DIRECTION ( 'NONE',  ( 3.188829919075013100E-017, 1.000000000000000000, -0.0000000000000000000 ) ) ;
#45 = CARTESIAN_POINT ( 'NONE',  ( 0.0000000000000000000, 0.0000000000000000000, 0.0000000000000000000 ) ) ;
#46 = DIRECTION ( 'NONE',  ( 3.188829919075013100E-017, 1.000000000000000000, -0.0000000000000000000 ) ) ;
#47 = CARTESIAN_POINT ( 'NONE',  ( 3.800000000000008300, -1.211755369248507500E-016, 4.653657836759951600E-016 ) ) ;
#48 = PLANE ( 'NONE',  #157 ) ;
#49 = CARTESIAN_POINT ( 'NONE',  ( 1.932040888029715600E-033, 6.058776846242537600E-017, 0.0000000000000000000 ) ) ;
#50 = CARTESIAN_POINT ( 'NONE',  ( 1.913297951445006900E-016, 5.999999999999998200, 0.0000000000000000000 ) ) ;
#51 = DIRECTION ( 'NONE',  ( 3.188829919075013100E-017, 1.000000000000000000, -0.0000000000000000000 ) ) ;
#52 = CARTESIAN_POINT ( 'NONE',  ( 1.084202172485504400E-015, 34.00000000000000000, 0.0000000000000000000 ) ) ;
#53 = DIRECTION ( 'NONE',  ( 3.188829919075013100E-017, 1.000000000000000000, -0.0000000000000000000 ) ) ;
#54 = DIRECTION ( 'NONE',  ( 3.188829919075013100E-017, 1.000000000000000000, -0.0000000000000000000 ) ) ;
#55 = DIRECTION ( 'NONE',  ( -1.000000000000000000, 0.0000000000000000000, 0.0000000000000000000 ) ) ;
#56 = CARTESIAN_POINT ( 'NONE',  ( 6.250000000000004400, 5.999999999999998200, 7.960204194457801400E-016 ) ) ;
#57 = DIRECTION ( 'NONE',  ( -1.000000000000000000, 0.0000000000000000000, 0.0000000000000000000 ) ) ;
#58 = DIRECTION ( 'NONE',  ( -1.000000000000000000, 3.188829919075013100E-017, 0.0000000000000000000 ) ) ;
#59 = CARTESIAN_POINT ( 'NONE',  ( 8.673617379884035500E-016, 27.50000000000000400, 0.0000000000000000000 ) ) ;
#60 = SURFACE_STYLE_USAGE ( .BOTH. , #87 ) ;
#61 = DIRECTION ( 'NONE',  ( -1.000000000000000000, 3.188829919075013100E-017, 0.0000000000000000000 ) ) ;
#62 =( NAMED_UNIT ( * ) PLANE_ANGLE_UNIT ( ) SI_UNIT ( $, .RADIAN. ) );
#63 = DIRECTION ( 'NONE',  ( 3.188829919075013100E-017, 1.000000000000000000, -0.0000000000000000000 ) ) ;
#64 = FILL_AREA_STYLE_COLOUR ( '', #353 ) ;
#65 = DIRECTION ( 'NONE',  ( 3.188829919075013100E-017, 1.000000000000000000, -0.0000000000000000000 ) ) ;
#66 = CARTESIAN_POINT ( 'NONE',  ( 8.673617379884035500E-016, 27.50000000000000400, 0.0000000000000000000 ) ) ;
#67 = CARTESIAN_POINT ( 'NONE',  ( 1.084202172485504400E-015, 34.00000000000000000, 0.0000000000000000000 ) ) ;
#68 = DIRECTION ( 'NONE',  ( -1.000000000000000000, 0.0000000000000000000, 0.0000000000000000000 ) ) ;
#69 = DIRECTION ( 'NONE',  ( 3.188829919075013100E-017, 1.000000000000000000, -0.0000000000000000000 ) ) ;
#70 = DIRECTION ( 'NONE',  ( 3.188829919075013100E-017, 1.000000000000000000, -0.0000000000000000000 ) ) ;
#71 = CARTESIAN_POINT ( 'NONE',  ( 1.084202172485504400E-015, 34.00000000000000000, 0.0000000000000000000 ) ) ;
#72 = CARTESIAN_POINT ( 'NONE',  ( -1.925929944387235900E-031, 0.0000000000000000000, 0.0000000000000000000 ) ) ;
#73 = DIRECTION ( 'NONE',  ( 3.188829919075013100E-017, 1.000000000000000000, -0.0000000000000000000 ) ) ;
#74 = CARTESIAN_POINT ( 'NONE',  ( -1.925929944387235900E-031, 0.0000000000000000000, 0.0000000000000000000 ) ) ;
#75 = DIRECTION ( 'NONE',  ( -1.000000000000000000, 3.188829919075013100E-017, 0.0000000000000000000 ) ) ;
#76 = CARTESIAN_POINT ( 'NONE',  ( 1.913297951445006900E-016, 5.999999999999998200, 0.0000000000000000000 ) ) ;
#77 = DIRECTION ( 'NONE',  ( -1.000000000000000000, 0.0000000000000000000, 0.0000000000000000000 ) ) ;
#78 = CARTESIAN_POINT ( 'NONE',  ( -1.925929944387235900E-031, 0.0000000000000000000, 0.0000000000000000000 ) ) ;
#79 = DIRECTION ( 'NONE',  ( -1.000000000000000000, 3.188829919075013100E-017, 0.0000000000000000000 ) ) ;
#80 = DIRECTION ( 'NONE',  ( 3.188829919075013100E-017, 1.000000000000000000, -0.0000000000000000000 ) ) ;
#81 = DIRECTION ( 'NONE',  ( -1.000000000000000000, 0.0000000000000000000, 0.0000000000000000000 ) ) ;
#82 = DIRECTION ( 'NONE',  ( 3.188829919075013100E-017, 1.000000000000000000, -0.0000000000000000000 ) ) ;
#83 = CARTESIAN_POINT ( 'NONE',  ( 1.913297951445006900E-016, 5.999999999999998200, 0.0000000000000000000 ) ) ;
#84 = DIRECTION ( 'NONE',  ( -1.000000000000000000, 0.0000000000000000000, 0.0000000000000000000 ) ) ;
#85 = CARTESIAN_POINT ( 'NONE',  ( 4.800000000000006000, 34.00000000000000000, 5.878304635907301100E-016 ) ) ;
#86 = CARTESIAN_POINT ( 'NONE',  ( 1.084202172485504400E-015, 34.00000000000000000, 0.0000000000000000000 ) ) ;
#87 = SURFACE_SIDE_STYLE ('',( #233 ) ) ;
#88 = DIRECTION ( 'NONE',  ( 1.000000000000000000, -3.188829919075013100E-017, 0.0000000000000000000 ) ) ;
#89 = DIRECTION ( 'NONE',  ( -3.188829919075013100E-017, -1.000000000000000000, 0.0000000000000000000 ) ) ;
#90 = DIRECTION ( 'NONE',  ( -1.000000000000000000, 0.0000000000000000000, 0.0000000000000000000 ) ) ;
#91 = DIRECTION ( 'NONE',  ( -1.000000000000000000, 0.0000000000000000000, 0.0000000000000000000 ) ) ;
#92 = CARTESIAN_POINT ( 'NONE',  ( -6.750000000000003600, 34.00000000000000000, 0.0000000000000000000 ) ) ;
#93 = DIRECTION ( 'NONE',  ( 3.188829919075013100E-017, 1.000000000000000000, -0.0000000000000000000 ) ) ;
#94 = CARTESIAN_POINT ( 'NONE',  ( 1.084202172485504400E-015, 34.00000000000000000, 0.0000000000000000000 ) ) ;
#95 = CARTESIAN_POINT ( 'NONE',  ( 8.769282277456285600E-016, 27.50000000000000000, 0.0000000000000000000 ) ) ;
#96 = DIRECTION ( 'NONE',  ( -1.000000000000000000, 3.188829919075013100E-017, 0.0000000000000000000 ) ) ;
#97 = DIRECTION ( 'NONE',  ( 3.188829919075013100E-017, 1.000000000000000000, -0.0000000000000000000 ) ) ;
#98 = PLANE ( 'NONE',  #172 ) ;
#99 = DIRECTION ( 'NONE',  ( -1.000000000000000000, 4.517509052022930400E-017, 0.0000000000000000000 ) ) ;
#100 = DIRECTION ( 'NONE',  ( -0.7071067811865460200, 0.7071067811865489100, 0.0000000000000000000 ) ) ;
#101 = CARTESIAN_POINT ( 'NONE',  ( 4.800000000000005200, 6.000000000000000000, 0.0000000000000000000 ) ) ;
#102 = PLANE ( 'NONE',  #170 ) ;
#103 = CARTESIAN_POINT ( 'NONE',  ( 6.750000000000004400, 6.499999999999999100, 8.266365894244639300E-016 ) ) ;
#104 = CARTESIAN_POINT ( 'NONE',  ( -3.800000000000008700, 1.211755369248507500E-016, 0.0000000000000000000 ) ) ;
#105 = CARTESIAN_POINT ( 'NONE',  ( 2.072739447398757000E-016, 6.499999999999999100, 0.0000000000000000000 ) ) ;
#106 = CARTESIAN_POINT ( 'NONE',  ( 4.800000000000005200, 5.999999999999998200, 5.878304635907301100E-016 ) ) ;
#107 = CARTESIAN_POINT ( 'NONE',  ( 2.072739447398757000E-016, 6.499999999999999100, 0.0000000000000000000 ) ) ;
#108 = CARTESIAN_POINT ( 'NONE',  ( -0.2500000000000028300, 27.50000000000000400, 0.0000000000000000000 ) ) ;
#109 = CARTESIAN_POINT ( 'NONE',  ( 0.2500000000000049400, 34.00000000000000000, 4.286263797015738100E-016 ) ) ;
#110 = CARTESIAN_POINT ( 'NONE',  ( 8.769282277456285600E-016, 27.50000000000000000, 0.0000000000000000000 ) ) ;
#111 = CARTESIAN_POINT ( 'NONE',  ( -6.750000000000004400, 6.499999999999999100, 0.0000000000000000000 ) ) ;
#112 = CARTESIAN_POINT ( 'NONE',  ( 0.2500000000000036600, 34.00000000000000000, 0.0000000000000000000 ) ) ;
#113 = CARTESIAN_POINT ( 'NONE',  ( -0.2500000000000027800, 34.00000000000000000, 0.0000000000000000000 ) ) ;
#114 = CARTESIAN_POINT ( 'NONE',  ( -6.250000000000004400, 5.999999999999998200, 0.0000000000000000000 ) ) ;
#115 = CARTESIAN_POINT ( 'NONE',  ( -4.800000000000005200, 5.999999999999998200, 0.0000000000000000000 ) ) ;
#116 = CARTESIAN_POINT ( 'NONE',  ( -4.800000000000005200, 1.000000000000001100, 0.0000000000000000000 ) ) ;
#117 = CARTESIAN_POINT ( 'NONE',  ( 3.800000000000009100, -1.211755369248507800E-016, 5.265981236333628300E-016 ) ) ;
#118 = DIRECTION ( 'NONE',  ( -1.000000000000000000, 0.0000000000000000000, 0.0000000000000000000 ) ) ;
#119 = DIRECTION ( 'NONE',  ( -1.000000000000000000, 0.0000000000000000000, 0.0000000000000000000 ) ) ;
#120 = DIRECTION ( 'NONE',  ( 3.188829919075013100E-017, 1.000000000000000000, -0.0000000000000000000 ) ) ;
#121 = DIRECTION ( 'NONE',  ( 3.188829919075013100E-017, 1.000000000000000000, -0.0000000000000000000 ) ) ;
#122 = CARTESIAN_POINT ( 'NONE',  ( -6.250000000000004400, 5.999999999999998200, 0.0000000000000000000 ) ) ;
#123 = CARTESIAN_POINT ( 'NONE',  ( 1.913297951445006900E-016, 5.999999999999998200, 0.0000000000000000000 ) ) ;
#124 = CARTESIAN_POINT ( 'NONE',  ( -3.800000000000008300, 1.211755369248507500E-016, 0.0000000000000000000 ) ) ;
#125 = DIRECTION ( 'NONE',  ( -1.000000000000000000, 3.188829919075012500E-017, 0.0000000000000000000 ) ) ;
#126 = DIRECTION ( 'NONE',  ( 3.188829919075013100E-017, 1.000000000000000000, -0.0000000000000000000 ) ) ;
#127 = DIRECTION ( 'NONE',  ( 3.188829919075013100E-017, 1.000000000000000000, -0.0000000000000000000 ) ) ;
#128 = DIRECTION ( 'NONE',  ( -1.000000000000000000, 0.0000000000000000000, 0.0000000000000000000 ) ) ;
#129 = DIRECTION ( 'NONE',  ( 3.188829919075013100E-017, 1.000000000000000000, -0.0000000000000000000 ) ) ;
#130 = CARTESIAN_POINT ( 'NONE',  ( 1.913297951445006900E-016, 5.999999999999998200, 0.0000000000000000000 ) ) ;
#131 = CARTESIAN_POINT ( 'NONE',  ( -4.800000000000004300, 34.00000000000000000, 0.0000000000000000000 ) ) ;
#132 = DIRECTION ( 'NONE',  ( 1.000000000000000000, 0.0000000000000000000, 1.224646799147353200E-016 ) ) ;
#133 = CARTESIAN_POINT ( 'NONE',  ( 6.750000000000005300, 34.00000000000000000, 8.266365894244639300E-016 ) ) ;
#134 = CARTESIAN_POINT ( 'NONE',  ( 3.188829919075002000E-017, 1.000000000000000900, 0.0000000000000000000 ) ) ;
#135 = DIRECTION ( 'NONE',  ( -1.224646799147353200E-016, 3.905190353420527900E-033, 1.000000000000000000 ) ) ;
#136 = CARTESIAN_POINT ( 'NONE',  ( 0.2500000000000045500, 27.50000000000000400, 3.061616997868428000E-017 ) ) ;
#137 = CARTESIAN_POINT ( 'NONE',  ( -1.925929944387235900E-031, 0.0000000000000000000, 0.0000000000000000000 ) ) ;
#138 = DIRECTION ( 'NONE',  ( -0.7071067811865469100, 0.7071067811865482400, 0.0000000000000000000 ) ) ;
#139 = DIRECTION ( 'NONE',  ( 3.188829919075013100E-017, 1.000000000000000000, -0.0000000000000000000 ) ) ;
#140 = CARTESIAN_POINT ( 'NONE',  ( 1.084202172485504400E-015, 34.00000000000000000, 0.0000000000000000000 ) ) ;
#141 = DIRECTION ( 'NONE',  ( 0.7071067811865469100, 0.7071067811865482400, 8.659560562354925500E-017 ) ) ;
#142 = DIRECTION ( 'NONE',  ( -1.000000000000000000, 0.0000000000000000000, 0.0000000000000000000 ) ) ;
#143 = CARTESIAN_POINT ( 'NONE',  ( 6.250000000000004400, 5.999999999999998200, 7.654042494670963500E-016 ) ) ;
#144 = DIRECTION ( 'NONE',  ( -1.000000000000000000, 0.0000000000000000000, 0.0000000000000000000 ) ) ;
#145 = DIRECTION ( 'NONE',  ( 3.188829919075013100E-017, 1.000000000000000000, -0.0000000000000000000 ) ) ;
#146 = CARTESIAN_POINT ( 'NONE',  ( 1.913297951445006900E-016, 5.999999999999998200, 0.0000000000000000000 ) ) ;
#147 = DIRECTION ( 'NONE',  ( 3.188829919075013100E-017, 1.000000000000000000, -0.0000000000000000000 ) ) ;
#148 = DIRECTION ( 'NONE',  ( -1.000000000000000000, 0.0000000000000000000, 0.0000000000000000000 ) ) ;
#149 = DIRECTION ( 'NONE',  ( -1.000000000000000000, 0.0000000000000000000, 0.0000000000000000000 ) ) ;
#150 =( LENGTH_UNIT ( ) NAMED_UNIT ( * ) SI_UNIT ( .MILLI., .METRE. ) );
#151 = AXIS2_PLACEMENT_3D ( 'NONE', #45, #24, #23 ) ;
#152 =( GEOMETRIC_REPRESENTATION_CONTEXT ( 3 ) GLOBAL_UNCERTAINTY_ASSIGNED_CONTEXT ( ( #3 ) ) GLOBAL_UNIT_ASSIGNED_CONTEXT ( ( #30, #29, #27 ) ) REPRESENTATION_CONTEXT ( 'NONE', 'WORKASPACE' ) );
#153 = MECHANICAL_DESIGN_GEOMETRIC_PRESENTATION_REPRESENTATION (  '', ( #156 ), #152 ) ;
#154 = PRESENTATION_LAYER_ASSIGNMENT (  '', '', ( #156 ) ) ;
#155 = PRODUCT_DEFINITION_FORMATION_WITH_SPECIFIED_SOURCE ( 'TUTTO', '', #217, .NOT_KNOWN. ) ;
#156 = STYLED_ITEM ( 'NONE', ( #314 ), #1 ) ;
#157 = AXIS2_PLACEMENT_3D ( 'NONE', #49, #44, #43 ) ;
#158 = AXIS2_PLACEMENT_3D ( 'NONE', #52, #51, #57 ) ;
#159 = PRODUCT_DEFINITION ( 'NON CONOSCIUTO', '', #155, #239 ) ;
#160 = AXIS2_PLACEMENT_3D ( 'NONE', #94, #46, #25 ) ;
#161 =( GEOMETRIC_REPRESENTATION_CONTEXT ( 3 ) GLOBAL_UNCERTAINTY_ASSIGNED_CONTEXT ( ( #5 ) ) GLOBAL_UNIT_ASSIGNED_CONTEXT ( ( #42, #41, #40 ) ) REPRESENTATION_CONTEXT ( 'NONE', 'WORKASPACE' ) );
#162 = AXIS2_PLACEMENT_3D ( 'NONE', #78, #53, #79 ) ;
#163 = AXIS2_PLACEMENT_3D ( 'NONE', #76, #80, #77 ) ;
#164 = EDGE_CURVE ( 'NONE', #343, #218, #281, .T. ) ;
#165 = AXIS2_PLACEMENT_3D ( 'NONE', #59, #65, #75 ) ;
#166 = AXIS2_PLACEMENT_3D ( 'NONE', #71, #70, #81 ) ;
#167 = AXIS2_PLACEMENT_3D ( 'NONE', #74, #73, #58 ) ;
#168 = AXIS2_PLACEMENT_3D ( 'NONE', #86, #93, #90 ) ;
#169 = AXIS2_PLACEMENT_3D ( 'NONE', #83, #82, #84 ) ;
#170 = AXIS2_PLACEMENT_3D ( 'NONE', #112, #89, #88 ) ;
#171 = AXIS2_PLACEMENT_3D ( 'NONE', #66, #69, #61 ) ;
#172 = AXIS2_PLACEMENT_3D ( 'NONE', #101, #97, #96 ) ;
#173 = PRODUCT_RELATED_PRODUCT_CATEGORY ( 'part', '', ( #217 ) ) ;
#174 = AXIS2_PLACEMENT_3D ( 'NONE', #110, #120, #118 ) ;
#175 = EDGE_CURVE ( 'NONE', #343, #333, #266, .T. ) ;
#176 = EDGE_CURVE ( 'NONE', #333, #325, #286, .T. ) ;
#177 = AXIS2_PLACEMENT_3D ( 'NONE', #107, #54, #55 ) ;
#178 = AXIS2_PLACEMENT_3D ( 'NONE', #26, #16, #33 ) ;
#179 = AXIS2_PLACEMENT_3D ( 'NONE', #146, #19, #68 ) ;
#180 = AXIS2_PLACEMENT_3D ( 'NONE', #72, #8, #39 ) ;
#181 = AXIS2_PLACEMENT_3D ( 'NONE', #130, #129, #119 ) ;
#182 = AXIS2_PLACEMENT_3D ( 'NONE', #140, #145, #144 ) ;
#183 = AXIS2_PLACEMENT_3D ( 'NONE', #136, #135, #132 ) ;
#184 = AXIS2_PLACEMENT_3D ( 'NONE', #123, #121, #128 ) ;
#185 = AXIS2_PLACEMENT_3D ( 'NONE', #50, #63, #148 ) ;
#186 = AXIS2_PLACEMENT_3D ( 'NONE', #134, #17, #99 ) ;
#187 = AXIS2_PLACEMENT_3D ( 'NONE', #137, #9, #125 ) ;
#188 = AXIS2_PLACEMENT_3D ( 'NONE', #108, #15, #91 ) ;
#189 = AXIS2_PLACEMENT_3D ( 'NONE', #67, #6, #149 ) ;
#190 = AXIS2_PLACEMENT_3D ( 'NONE', #95, #126, #142 ) ;
#191 = AXIS2_PLACEMENT_3D ( 'NONE', #105, #139, #7 ) ;
#192 =( GEOMETRIC_REPRESENTATION_CONTEXT ( 3 ) GLOBAL_UNCERTAINTY_ASSIGNED_CONTEXT ( ( #4 ) ) GLOBAL_UNIT_ASSIGNED_CONTEXT ( ( #150, #62, #21 ) ) REPRESENTATION_CONTEXT ( 'NONE', 'WORKASPACE' ) );
#193 = MECHANICAL_DESIGN_GEOMETRIC_PRESENTATION_REPRESENTATION (  '', ( #195 ), #192 ) ;
#194 = PRESENTATION_LAYER_ASSIGNMENT (  '', '', ( #195 ) ) ;
#195 = STYLED_ITEM ( 'NONE', ( #260 ), #2 ) ;
#196 = EDGE_CURVE ( 'NONE', #325, #218, #261, .T. ) ;
#197 = EDGE_CURVE ( 'NONE', #326, #275, #248, .T. ) ;
#198 = EDGE_CURVE ( 'NONE', #218, #275, #327, .T. ) ;
#199 = EDGE_CURVE ( 'NONE', #229, #334, #259, .T. ) ;
#200 = EDGE_CURVE ( 'NONE', #316, #343, #276, .T. ) ;
#201 = EDGE_CURVE ( 'NONE', #230, #231, #242, .T. ) ;
#202 = EDGE_CURVE ( 'NONE', #342, #277, #341, .T. ) ;
#203 = EDGE_CURVE ( 'NONE', #334, #231, #273, .T. ) ;
#204 = EDGE_CURVE ( 'NONE', #277, #342, #313, .T. ) ;
#205 = EDGE_CURVE ( 'NONE', #325, #326, #284, .T. ) ;
#206 = EDGE_CURVE ( 'NONE', #275, #326, #244, .T. ) ;
#207 = EDGE_CURVE ( 'NONE', #231, #277, #331, .T. ) ;
#208 = EDGE_CURVE ( 'NONE', #220, #316, #249, .T. ) ;
#209 = EDGE_CURVE ( 'NONE', #220, #333, #254, .T. ) ;
#210 = EDGE_CURVE ( 'NONE', #334, #229, #253, .T. ) ;
#211 = EDGE_CURVE ( 'NONE', #316, #220, #251, .T. ) ;
#212 = EDGE_CURVE ( 'NONE', #231, #230, #265, .T. ) ;
#213 = EDGE_CURVE ( 'NONE', #230, #342, #288, .T. ) ;
#214 = EDGE_CURVE ( 'NONE', #229, #230, #267, .T. ) ;
#215 = EDGE_CURVE ( 'NONE', #333, #343, #246, .T. ) ;
#216 = EDGE_CURVE ( 'NONE', #218, #325, #287, .T. ) ;
#217 = PRODUCT ( '0710000002A', '0710000002A', '', ( #22 ) ) ;
#218 = VERTEX_POINT ( 'NONE', #14 ) ;
#219 = EDGE_LOOP ( 'NONE', ( #347, #330, #338, #282 ) ) ;
#220 = VERTEX_POINT ( 'NONE', #56 ) ;
#221 = EDGE_LOOP ( 'NONE', ( #322, #271, #272, #336 ) ) ;
#222 = EDGE_LOOP ( 'NONE', ( #250, #245, #290, #243 ) ) ;
#223 = EDGE_LOOP ( 'NONE', ( #349, #345, #351, #317 ) ) ;
#224 = EDGE_LOOP ( 'NONE', ( #241, #337, #350, #258 ) ) ;
#225 = CLOSED_SHELL ( 'NONE', ( #365, #371, #368, #370, #367, #372, #369, #362, #360, #363, #364, #366, #361 ) ) ;
#226 = EDGE_LOOP ( 'NONE', ( #252, #304 ) ) ;
#227 = EDGE_LOOP ( 'NONE', ( #339, #309 ) ) ;
#228 = EDGE_LOOP ( 'NONE', ( #324, #320, #280, #328 ) ) ;
#229 = VERTEX_POINT ( 'NONE', #117 ) ;
#230 = VERTEX_POINT ( 'NONE', #10 ) ;
#231 = VERTEX_POINT ( 'NONE', #116 ) ;
#232 = EDGE_LOOP ( 'NONE', ( #264, #344, #310, #346 ) ) ;
#233 = SURFACE_STYLE_FILL_AREA ( #12 ) ;
#234 = EDGE_LOOP ( 'NONE', ( #268, #279, #329, #340 ) ) ;
#235 = EDGE_LOOP ( 'NONE', ( #257, #335 ) ) ;
#236 = EDGE_LOOP ( 'NONE', ( #348, #319 ) ) ;
#237 = EDGE_LOOP ( 'NONE', ( #323, #270, #274, #332 ) ) ;
#238 = EDGE_LOOP ( 'NONE', ( #321, #318, #255, #289 ) ) ;
#239 = PRODUCT_DEFINITION_CONTEXT ( 'detailed design', #20, 'design' ) ;
#240 = PRODUCT_DEFINITION_SHAPE ( 'NONE', 'NONE',  #159 ) ;
#241 = ORIENTED_EDGE ( 'NONE', *, *, #205, .F. ) ;
#242 = CIRCLE ( 'NONE', #186, 4.800000000000005200 ) ;
#243 = ORIENTED_EDGE ( 'NONE', *, *, #202, .F. ) ;
#244 = CIRCLE ( 'NONE', #182, 0.2500000000000038300 ) ;
#245 = ORIENTED_EDGE ( 'NONE', *, *, #201, .T. ) ;
#246 = CIRCLE ( 'NONE', #177, 6.750000000000004400 ) ;
#247 = VECTOR ( 'NONE', #138, 1000.000000000000000 ) ;
#248 = CIRCLE ( 'NONE', #189, 0.2500000000000038300 ) ;
#249 = CIRCLE ( 'NONE', #181, 6.250000000000004400 ) ;
#250 = ORIENTED_EDGE ( 'NONE', *, *, #213, .F. ) ;
#251 = CIRCLE ( 'NONE', #179, 6.250000000000004400 ) ;
#252 = ORIENTED_EDGE ( 'NONE', *, *, #204, .T. ) ;
#253 = CIRCLE ( 'NONE', #180, 3.800000000000008700 ) ;
#254 = LINE ( 'NONE', #143, #256 ) ;
#255 = ORIENTED_EDGE ( 'NONE', *, *, #164, .T. ) ;
#256 = VECTOR ( 'NONE', #141, 1000.000000000000000 ) ;
#257 = ORIENTED_EDGE ( 'NONE', *, *, #206, .T. ) ;
#258 = ORIENTED_EDGE ( 'NONE', *, *, #197, .F. ) ;
#259 = CIRCLE ( 'NONE', #187, 3.800000000000008700 ) ;
#260 = PRESENTATION_STYLE_ASSIGNMENT (( #60 ) ) ;
#261 = CIRCLE ( 'NONE', #190, 6.750000000000003600 ) ;
#262 = VECTOR ( 'NONE', #35, 1000.000000000000000 ) ;
#263 = VECTOR ( 'NONE', #147, 1000.000000000000000 ) ;
#264 = ORIENTED_EDGE ( 'NONE', *, *, #214, .F. ) ;
#265 = CIRCLE ( 'NONE', #178, 4.800000000000005200 ) ;
#266 = CIRCLE ( 'NONE', #191, 6.750000000000004400 ) ;
#267 = LINE ( 'NONE', #47, #303 ) ;
#268 = ORIENTED_EDGE ( 'NONE', *, *, #175, .T. ) ;
#269 = CYLINDRICAL_SURFACE ( 'NONE', #166, 6.750000000000004400 ) ;
#270 = ORIENTED_EDGE ( 'NONE', *, *, #209, .T. ) ;
#271 = ORIENTED_EDGE ( 'NONE', *, *, #213, .T. ) ;
#272 = ORIENTED_EDGE ( 'NONE', *, *, #204, .F. ) ;
#273 = LINE ( 'NONE', #124, #278 ) ;
#274 = ORIENTED_EDGE ( 'NONE', *, *, #175, .F. ) ;
#275 = VERTEX_POINT ( 'NONE', #113 ) ;
#276 = LINE ( 'NONE', #122, #247 ) ;
#277 = VERTEX_POINT ( 'NONE', #115 ) ;
#278 = VECTOR ( 'NONE', #100, 1000.000000000000100 ) ;
#279 = ORIENTED_EDGE ( 'NONE', *, *, #176, .T. ) ;
#280 = ORIENTED_EDGE ( 'NONE', *, *, #212, .F. ) ;
#281 = LINE ( 'NONE', #92, #306 ) ;
#282 = ORIENTED_EDGE ( 'NONE', *, *, #198, .F. ) ;
#283 = FACE_OUTER_BOUND ( 'NONE', #222, .T. ) ;
#284 = CIRCLE ( 'NONE', #183, 6.499999999999999100 ) ;
#285 = FACE_OUTER_BOUND ( 'NONE', #223, .T. ) ;
#286 = LINE ( 'NONE', #133, #262 ) ;
#287 = CIRCLE ( 'NONE', #174, 6.750000000000003600 ) ;
#288 = LINE ( 'NONE', #85, #263 ) ;
#289 = ORIENTED_EDGE ( 'NONE', *, *, #196, .F. ) ;
#290 = ORIENTED_EDGE ( 'NONE', *, *, #207, .T. ) ;
#291 = FACE_OUTER_BOUND ( 'NONE', #238, .T. ) ;
#292 = CYLINDRICAL_SURFACE ( 'NONE', #168, 4.800000000000005200 ) ;
#293 = TOROIDAL_SURFACE ( 'NONE', #171, 0.2500000000000036600, 6.499999999999999100 ) ;
#294 = FACE_BOUND ( 'NONE', #226, .T. ) ;
#295 = FACE_OUTER_BOUND ( 'NONE', #224, .T. ) ;
#296 = CONICAL_SURFACE ( 'NONE', #169, 6.250000000000004400, 0.7853981633974473900 ) ;
#297 = TOROIDAL_SURFACE ( 'NONE', #165, 0.2500000000000036600, 6.499999999999999100 ) ;
#298 = FACE_OUTER_BOUND ( 'NONE', #219, .T. ) ;
#299 = CYLINDRICAL_SURFACE ( 'NONE', #160, 4.800000000000005200 ) ;
#300 = FACE_OUTER_BOUND ( 'NONE', #232, .T. ) ;
#301 = SURFACE_STYLE_FILL_AREA ( #34 ) ;
#302 = FACE_OUTER_BOUND ( 'NONE', #227, .T. ) ;
#303 = VECTOR ( 'NONE', #13, 1000.000000000000100 ) ;
#304 = ORIENTED_EDGE ( 'NONE', *, *, #202, .T. ) ;
#305 = FACE_OUTER_BOUND ( 'NONE', #234, .T. ) ;
#306 = VECTOR ( 'NONE', #28, 1000.000000000000000 ) ;
#307 = SHAPE_DEFINITION_REPRESENTATION ( #240, #1 ) ;
#308 = CONICAL_SURFACE ( 'NONE', #167, 3.800000000000008300, 0.7853981633974461700 ) ;
#309 = ORIENTED_EDGE ( 'NONE', *, *, #199, .F. ) ;
#310 = ORIENTED_EDGE ( 'NONE', *, *, #203, .T. ) ;
#311 = FACE_OUTER_BOUND ( 'NONE', #221, .T. ) ;
#312 = CONICAL_SURFACE ( 'NONE', #163, 6.250000000000004400, 0.7853981633974473900 ) ;
#313 = CIRCLE ( 'NONE', #184, 4.800000000000005200 ) ;
#314 = PRESENTATION_STYLE_ASSIGNMENT (( #31 ) ) ;
#315 = COLOUR_RGB ( '',0.3960784313725490000, 0.4784313725490195700, 0.8039215686274510100 ) ;
#316 = VERTEX_POINT ( 'NONE', #114 ) ;
#317 = ORIENTED_EDGE ( 'NONE', *, *, #215, .F. ) ;
#318 = ORIENTED_EDGE ( 'NONE', *, *, #215, .T. ) ;
#319 = ORIENTED_EDGE ( 'NONE', *, *, #208, .F. ) ;
#320 = ORIENTED_EDGE ( 'NONE', *, *, #214, .T. ) ;
#321 = ORIENTED_EDGE ( 'NONE', *, *, #176, .F. ) ;
#322 = ORIENTED_EDGE ( 'NONE', *, *, #212, .T. ) ;
#323 = ORIENTED_EDGE ( 'NONE', *, *, #211, .T. ) ;
#324 = ORIENTED_EDGE ( 'NONE', *, *, #210, .T. ) ;
#325 = VERTEX_POINT ( 'NONE', #11 ) ;
#326 = VERTEX_POINT ( 'NONE', #109 ) ;
#327 = CIRCLE ( 'NONE', #188, 6.499999999999999100 ) ;
#328 = ORIENTED_EDGE ( 'NONE', *, *, #203, .F. ) ;
#329 = ORIENTED_EDGE ( 'NONE', *, *, #216, .F. ) ;
#330 = ORIENTED_EDGE ( 'NONE', *, *, #205, .T. ) ;
#331 = LINE ( 'NONE', #131, #356 ) ;
#332 = ORIENTED_EDGE ( 'NONE', *, *, #200, .F. ) ;
#333 = VERTEX_POINT ( 'NONE', #103 ) ;
#334 = VERTEX_POINT ( 'NONE', #104 ) ;
#335 = ORIENTED_EDGE ( 'NONE', *, *, #197, .T. ) ;
#336 = ORIENTED_EDGE ( 'NONE', *, *, #207, .F. ) ;
#337 = ORIENTED_EDGE ( 'NONE', *, *, #196, .T. ) ;
#338 = ORIENTED_EDGE ( 'NONE', *, *, #206, .F. ) ;
#339 = ORIENTED_EDGE ( 'NONE', *, *, #210, .F. ) ;
#340 = ORIENTED_EDGE ( 'NONE', *, *, #164, .F. ) ;
#341 = CIRCLE ( 'NONE', #185, 4.800000000000005200 ) ;
#342 = VERTEX_POINT ( 'NONE', #106 ) ;
#343 = VERTEX_POINT ( 'NONE', #111 ) ;
#344 = ORIENTED_EDGE ( 'NONE', *, *, #199, .T. ) ;
#345 = ORIENTED_EDGE ( 'NONE', *, *, #208, .T. ) ;
#346 = ORIENTED_EDGE ( 'NONE', *, *, #201, .F. ) ;
#347 = ORIENTED_EDGE ( 'NONE', *, *, #216, .T. ) ;
#348 = ORIENTED_EDGE ( 'NONE', *, *, #211, .F. ) ;
#349 = ORIENTED_EDGE ( 'NONE', *, *, #209, .F. ) ;
#350 = ORIENTED_EDGE ( 'NONE', *, *, #198, .T. ) ;
#351 = ORIENTED_EDGE ( 'NONE', *, *, #200, .T. ) ;
#352 = CYLINDRICAL_SURFACE ( 'NONE', #158, 6.750000000000004400 ) ;
#353 = COLOUR_RGB ( '',0.3960784313725490000, 0.4784313725490195700, 0.8039215686274510100 ) ;
#354 = FACE_OUTER_BOUND ( 'NONE', #228, .T. ) ;
#355 = CONICAL_SURFACE ( 'NONE', #162, 3.800000000000008300, 0.7853981633974461700 ) ;
#356 = VECTOR ( 'NONE', #127, 1000.000000000000000 ) ;
#357 = FACE_OUTER_BOUND ( 'NONE', #236, .T. ) ;
#358 = FACE_OUTER_BOUND ( 'NONE', #235, .T. ) ;
#359 = FACE_OUTER_BOUND ( 'NONE', #237, .T. ) ;
#360 = ADVANCED_FACE ( 'NONE', ( #357, #294 ), #98, .F. ) ;
#361 = ADVANCED_FACE ( 'NONE', ( #358 ), #102, .F. ) ;
#362 = ADVANCED_FACE ( 'NONE', ( #283 ), #292, .T. ) ;
#363 = ADVANCED_FACE ( 'NONE', ( #285 ), #296, .T. ) ;
#364 = ADVANCED_FACE ( 'NONE', ( #291 ), #269, .T. ) ;
#365 = ADVANCED_FACE ( 'NONE', ( #298 ), #293, .T. ) ;
#366 = ADVANCED_FACE ( 'NONE', ( #295 ), #297, .T. ) ;
#367 = ADVANCED_FACE ( 'NONE', ( #354 ), #308, .T. ) ;
#368 = ADVANCED_FACE ( 'NONE', ( #359 ), #312, .T. ) ;
#369 = ADVANCED_FACE ( 'NONE', ( #300 ), #355, .T. ) ;
#370 = ADVANCED_FACE ( 'NONE', ( #311 ), #299, .T. ) ;
#371 = ADVANCED_FACE ( 'NONE', ( #305 ), #352, .T. ) ;
#372 = ADVANCED_FACE ( 'NONE', ( #302 ), #48, .F. ) ;
ENDSEC;
END-ISO-10303-21;
