ISO-10303-21;
HEADER;
FILE_DESCRIPTION(( 'MV.11SP00.14.STEP' ), '1');
FILE_NAME( 'MV.11SP00.14.STEP', '2018-10-03T17:28:45',( 'Sopra'),('sopra-pneumatic.com'), 'SwSTEP 2.0','SolidWorks 2009','' );
FILE_SCHEMA (( 'AUTOMOTIVE_DESIGN' ));
ENDSEC;

DATA;
#1 = MANIFOLD_SOLID_BREP ( 'Rivoluzione1', #259 ) ;
#2 = ADVANCED_BREP_SHAPE_REPRESENTATION ( '0710000003A', ( #1, #156 ), #164 ) ;
#3 = UNCERTAINTY_MEASURE_WITH_UNIT (LENGTH_MEASURE( 1.000000000000000100E-005 ), #92, 'distance_accuracy_value', 'NONE');
#4 = UNCERTAINTY_MEASURE_WITH_UNIT (LENGTH_MEASURE( 1.000000000000000100E-005 ), #30, 'distance_accuracy_value', 'NONE');
#5 = UNCERTAINTY_MEASURE_WITH_UNIT (LENGTH_MEASURE( 1.000000000000000100E-005 ), #44, 'distance_accuracy_value', 'NONE');
#6 = DIRECTION ( 'NONE',  ( 2.525553295907409900E-016, 1.000000000000000000, -0.0000000000000000000 ) ) ;
#7 = CARTESIAN_POINT ( 'NONE',  ( 2.525553295907408900E-016, 1.000000000000000900, 0.0000000000000000000 ) ) ;
#8 = DIRECTION ( 'NONE',  ( -1.000000000000000000, 0.0000000000000000000, 0.0000000000000000000 ) ) ;
#9 = DIRECTION ( 'NONE',  ( 2.525553295907409900E-016, 1.000000000000000000, -0.0000000000000000000 ) ) ;
#10 = CARTESIAN_POINT ( 'NONE',  ( -6.500000000000004400, 42.50000000000000700, 0.0000000000000000000 ) ) ;
#11 = DIRECTION ( 'NONE',  ( 2.525553295907409900E-016, 1.000000000000000000, -0.0000000000000000000 ) ) ;
#12 =( NAMED_UNIT ( * ) PLANE_ANGLE_UNIT ( ) SI_UNIT ( $, .RADIAN. ) );
#13 = DIRECTION ( 'NONE',  ( 2.525553295907409900E-016, 1.000000000000000000, -0.0000000000000000000 ) ) ;
#14 = CARTESIAN_POINT ( 'NONE',  ( 1.767887307135186300E-015, 6.999999999999999100, 0.0000000000000000000 ) ) ;
#15 = CARTESIAN_POINT ( 'NONE',  ( 1.073360150760649400E-014, 42.50000000000000700, 0.0000000000000000000 ) ) ;
#16 = CARTESIAN_POINT ( 'NONE',  ( -1.540743955509788700E-030, 0.0000000000000000000, 0.0000000000000000000 ) ) ;
#17 = APPLICATION_PROTOCOL_DEFINITION ( 'draft international standard', 'automotive_design', 1998, #20 ) ;
#18 = CARTESIAN_POINT ( 'NONE',  ( 2.525553295907408900E-016, 1.000000000000000900, 0.0000000000000000000 ) ) ;
#19 = DIRECTION ( 'NONE',  ( 2.525553295907409900E-016, 1.000000000000000000, -0.0000000000000000000 ) ) ;
#20 = APPLICATION_CONTEXT ( 'automotive_design' ) ;
#21 = PRODUCT_CONTEXT ( 'NONE', #37, 'mechanical' ) ;
#22 = DIRECTION ( 'NONE',  ( -0.0000000000000000000, 0.0000000000000000000, -1.000000000000000000 ) ) ;
#23 =( NAMED_UNIT ( * ) SI_UNIT ( $, .STERADIAN. ) SOLID_ANGLE_UNIT ( ) );
#24 = CARTESIAN_POINT ( 'NONE',  ( -7.749999999999997300, 42.50000000000000700, 0.0000000000000000000 ) ) ;
#25 = DIRECTION ( 'NONE',  ( 1.000000000000000000, 0.0000000000000000000, 0.0000000000000000000 ) ) ;
#26 = DIRECTION ( 'NONE',  ( 0.0000000000000000000, 0.0000000000000000000, 1.000000000000000000 ) ) ;
#27 =( NAMED_UNIT ( * ) SI_UNIT ( $, .STERADIAN. ) SOLID_ANGLE_UNIT ( ) );
#28 =( NAMED_UNIT ( * ) PLANE_ANGLE_UNIT ( ) SI_UNIT ( $, .RADIAN. ) );
#29 = DIRECTION ( 'NONE',  ( -1.000000000000000000, 0.0000000000000000000, 0.0000000000000000000 ) ) ;
#30 =( LENGTH_UNIT ( ) NAMED_UNIT ( * ) SI_UNIT ( .MILLI., .METRE. ) );
#31 = SURFACE_STYLE_USAGE ( .BOTH. , #32 ) ;
#32 = SURFACE_SIDE_STYLE ('',( #341 ) ) ;
#33 = FILL_AREA_STYLE ('',( #35 ) ) ;
#34 = DIRECTION ( 'NONE',  ( 2.525553295907409900E-016, 1.000000000000000000, -0.0000000000000000000 ) ) ;
#35 = FILL_AREA_STYLE_COLOUR ( '', #343 ) ;
#36 = CARTESIAN_POINT ( 'NONE',  ( 1.073360150760649400E-014, 42.50000000000000700, 0.0000000000000000000 ) ) ;
#37 = APPLICATION_CONTEXT ( 'automotive_design' ) ;
#38 = SURFACE_STYLE_USAGE ( .BOTH. , #56 ) ;
#39 = APPLICATION_PROTOCOL_DEFINITION ( 'draft international standard', 'automotive_design', 1998, #37 ) ;
#40 = CARTESIAN_POINT ( 'NONE',  ( 8.965714200471308400E-015, 35.50000000000001400, 0.0000000000000000000 ) ) ;
#41 = DIRECTION ( 'NONE',  ( -1.000000000000000000, 2.668805347656621300E-016, 0.0000000000000000000 ) ) ;
#42 =( NAMED_UNIT ( * ) SI_UNIT ( $, .STERADIAN. ) SOLID_ANGLE_UNIT ( ) );
#43 =( NAMED_UNIT ( * ) PLANE_ANGLE_UNIT ( ) SI_UNIT ( $, .RADIAN. ) );
#44 =( LENGTH_UNIT ( ) NAMED_UNIT ( * ) SI_UNIT ( .MILLI., .METRE. ) );
#45 = DIRECTION ( 'NONE',  ( 2.525553295907409900E-016, 1.000000000000000000, -0.0000000000000000000 ) ) ;
#46 = CARTESIAN_POINT ( 'NONE',  ( 0.0000000000000000000, 0.0000000000000000000, 0.0000000000000000000 ) ) ;
#47 = CARTESIAN_POINT ( 'NONE',  ( 1.073360150760649400E-014, 42.50000000000000700, 0.0000000000000000000 ) ) ;
#48 = DIRECTION ( 'NONE',  ( 1.000000000000000000, -2.525553295907409900E-016, 0.0000000000000000000 ) ) ;
#49 = DIRECTION ( 'NONE',  ( -2.525553295907409900E-016, -1.000000000000000000, 0.0000000000000000000 ) ) ;
#50 = DIRECTION ( 'NONE',  ( -1.000000000000000000, 0.0000000000000000000, 0.0000000000000000000 ) ) ;
#51 = PLANE ( 'NONE',  #163 ) ;
#52 = CARTESIAN_POINT ( 'NONE',  ( 2.070953702644075600E-015, 8.199999999999999300, 0.0000000000000000000 ) ) ;
#53 = DIRECTION ( 'NONE',  ( 2.525553295907409900E-016, 1.000000000000000000, -0.0000000000000000000 ) ) ;
#54 = DIRECTION ( 'NONE',  ( -1.000000000000000000, 2.525553295907409900E-016, 0.0000000000000000000 ) ) ;
#55 = DIRECTION ( 'NONE',  ( -1.000000000000000000, 2.668805347656620300E-016, 0.0000000000000000000 ) ) ;
#56 = SURFACE_SIDE_STYLE ('',( #244 ) ) ;
#57 = CARTESIAN_POINT ( 'NONE',  ( 0.7500000000000136600, 42.50000000000000700, 0.0000000000000000000 ) ) ;
#58 = CARTESIAN_POINT ( 'NONE',  ( 8.998878031629686800E-015, 35.50000000000001400, 0.0000000000000000000 ) ) ;
#59 = DIRECTION ( 'NONE',  ( -1.000000000000000000, 2.525553295907409900E-016, 0.0000000000000000000 ) ) ;
#60 = DIRECTION ( 'NONE',  ( -1.000000000000000000, 2.525553295907409900E-016, 0.0000000000000000000 ) ) ;
#61 = DIRECTION ( 'NONE',  ( -1.000000000000000000, 2.668805347656620300E-016, 0.0000000000000000000 ) ) ;
#62 = DIRECTION ( 'NONE',  ( 2.525553295907409900E-016, 1.000000000000000000, -0.0000000000000000000 ) ) ;
#63 = CARTESIAN_POINT ( 'NONE',  ( 2.070953702644075600E-015, 8.199999999999999300, 0.0000000000000000000 ) ) ;
#64 = CARTESIAN_POINT ( 'NONE',  ( -5.500000000000018700, 1.389054312749080200E-015, 0.0000000000000000000 ) ) ;
#65 = CARTESIAN_POINT ( 'NONE',  ( -6.500000000000015100, 1.000000000000002400, 0.0000000000000000000 ) ) ;
#66 = DIRECTION ( 'NONE',  ( -1.000000000000000000, 2.238352872228134700E-016, 0.0000000000000000000 ) ) ;
#67 = CARTESIAN_POINT ( 'NONE',  ( -1.540743955509788700E-030, 0.0000000000000000000, 0.0000000000000000000 ) ) ;
#68 = DIRECTION ( 'NONE',  ( -1.000000000000000000, 2.525553295907409900E-016, 0.0000000000000000000 ) ) ;
#69 = DIRECTION ( 'NONE',  ( 2.525553295907409900E-016, 1.000000000000000000, -0.0000000000000000000 ) ) ;
#70 = CARTESIAN_POINT ( 'NONE',  ( 1.073360150760649400E-014, 42.50000000000000700, 0.0000000000000000000 ) ) ;
#71 = DIRECTION ( 'NONE',  ( -1.000000000000000000, 0.0000000000000000000, 0.0000000000000000000 ) ) ;
#72 = DIRECTION ( 'NONE',  ( 2.525553295907409900E-016, 1.000000000000000000, -0.0000000000000000000 ) ) ;
#73 = FILL_AREA_STYLE_COLOUR ( '', #290 ) ;
#74 = CARTESIAN_POINT ( 'NONE',  ( 1.767887307135186300E-015, 6.999999999999999100, 0.0000000000000000000 ) ) ;
#75 = DIRECTION ( 'NONE',  ( 2.525553295907409900E-016, 1.000000000000000000, -0.0000000000000000000 ) ) ;
#76 = DIRECTION ( 'NONE',  ( -1.000000000000000000, 2.648432787750844300E-016, 0.0000000000000000000 ) ) ;
#77 = DIRECTION ( 'NONE',  ( 2.525553295907409900E-016, 1.000000000000000000, -0.0000000000000000000 ) ) ;
#78 = DIRECTION ( 'NONE',  ( -1.000000000000000000, 0.0000000000000000000, 0.0000000000000000000 ) ) ;
#79 = DIRECTION ( 'NONE',  ( 2.525553295907409900E-016, 1.000000000000000000, -0.0000000000000000000 ) ) ;
#80 = CARTESIAN_POINT ( 'NONE',  ( -5.500000000000018700, 1.389054312749080200E-015, 0.0000000000000000000 ) ) ;
#81 = DIRECTION ( 'NONE',  ( -1.000000000000000000, 2.525553295907409900E-016, 0.0000000000000000000 ) ) ;
#82 = CARTESIAN_POINT ( 'NONE',  ( 8.998878031629686800E-015, 35.50000000000001400, 0.0000000000000000000 ) ) ;
#83 = DIRECTION ( 'NONE',  ( 2.525553295907409900E-016, 1.000000000000000000, -0.0000000000000000000 ) ) ;
#84 = CARTESIAN_POINT ( 'NONE',  ( -1.540743955509788700E-030, 0.0000000000000000000, 0.0000000000000000000 ) ) ;
#85 = DIRECTION ( 'NONE',  ( -1.000000000000000000, 2.525553295907409900E-016, 0.0000000000000000000 ) ) ;
#86 = CARTESIAN_POINT ( 'NONE',  ( 1.073360150760649400E-014, 42.50000000000000700, 0.0000000000000000000 ) ) ;
#87 = DIRECTION ( 'NONE',  ( -1.000000000000000000, 2.525553295907409900E-016, 0.0000000000000000000 ) ) ;
#88 = DIRECTION ( 'NONE',  ( -1.000000000000000000, 0.0000000000000000000, 0.0000000000000000000 ) ) ;
#89 = PLANE ( 'NONE',  #173 ) ;
#90 = DIRECTION ( 'NONE',  ( 2.525553295907409900E-016, 1.000000000000000000, -0.0000000000000000000 ) ) ;
#91 = CARTESIAN_POINT ( 'NONE',  ( 6.500000000000014200, 7.000000000000000900, 0.0000000000000000000 ) ) ;
#92 =( LENGTH_UNIT ( ) NAMED_UNIT ( * ) SI_UNIT ( .MILLI., .METRE. ) );
#93 = DIRECTION ( 'NONE',  ( -1.000000000000000000, 2.525553295907409900E-016, 0.0000000000000000000 ) ) ;
#94 = DIRECTION ( 'NONE',  ( 2.525553295907409900E-016, 1.000000000000000000, -0.0000000000000000000 ) ) ;
#95 = DIRECTION ( 'NONE',  ( 2.525553295907409900E-016, 1.000000000000000000, -0.0000000000000000000 ) ) ;
#96 = CARTESIAN_POINT ( 'NONE',  ( 1.767887307135186300E-015, 6.999999999999999100, 0.0000000000000000000 ) ) ;
#97 = DIRECTION ( 'NONE',  ( 2.525553295907409900E-016, 1.000000000000000000, -0.0000000000000000000 ) ) ;
#98 = PLANE ( 'NONE',  #175 ) ;
#99 = DIRECTION ( 'NONE',  ( 2.525553295907409900E-016, 1.000000000000000000, -0.0000000000000000000 ) ) ;
#100 = CARTESIAN_POINT ( 'NONE',  ( 1.754065348878920900E-031, 6.945271563745401200E-016, 0.0000000000000000000 ) ) ;
#101 = DIRECTION ( 'NONE',  ( -1.000000000000000000, 0.0000000000000000000, 0.0000000000000000000 ) ) ;
#102 = CARTESIAN_POINT ( 'NONE',  ( 1.073360150760649400E-014, 42.50000000000000700, 0.0000000000000000000 ) ) ;
#103 = CARTESIAN_POINT ( 'NONE',  ( -7.749999999999994700, 35.50000000000001400, 0.0000000000000000000 ) ) ;
#104 = CARTESIAN_POINT ( 'NONE',  ( 0.7500000000000134300, 42.50000000000000700, 5.204748896376252700E-016 ) ) ;
#105 = DIRECTION ( 'NONE',  ( 2.525553295907409900E-016, 1.000000000000000000, -0.0000000000000000000 ) ) ;
#106 = CARTESIAN_POINT ( 'NONE',  ( 6.500000000000014200, 6.999999999999997300, 7.960204194457814200E-016 ) ) ;
#107 = CARTESIAN_POINT ( 'NONE',  ( 7.750000000000014200, 8.199999999999997500, 9.491012693392003600E-016 ) ) ;
#108 = DIRECTION ( 'NONE',  ( 2.525553295907409900E-016, 1.000000000000000000, -0.0000000000000000000 ) ) ;
#109 = CARTESIAN_POINT ( 'NONE',  ( 0.7500000000000145400, 35.50000000000001400, 9.184850993605216200E-017 ) ) ;
#110 = DIRECTION ( 'NONE',  ( -1.000000000000000000, 2.238352872228134700E-016, 0.0000000000000000000 ) ) ;
#111 = DIRECTION ( 'NONE',  ( 0.7071067811865462400, 0.7071067811865489100, 8.659560562354914400E-017 ) ) ;
#112 = DIRECTION ( 'NONE',  ( 2.525553295907409900E-016, 1.000000000000000000, -0.0000000000000000000 ) ) ;
#113 = DIRECTION ( 'NONE',  ( -1.224646799147353200E-016, 3.092910759909057800E-032, 1.000000000000000000 ) ) ;
#114 = CARTESIAN_POINT ( 'NONE',  ( -1.540743955509788700E-030, 0.0000000000000000000, 0.0000000000000000000 ) ) ;
#115 = DIRECTION ( 'NONE',  ( -0.7071067811865458000, 0.7071067811865492400, 0.0000000000000000000 ) ) ;
#116 = DIRECTION ( 'NONE',  ( -1.000000000000000000, 2.648432787750844300E-016, 0.0000000000000000000 ) ) ;
#117 = FILL_AREA_STYLE ('',( #73 ) ) ;
#118 = CARTESIAN_POINT ( 'NONE',  ( -6.500000000000010700, 7.000000000000000900, 0.0000000000000000000 ) ) ;
#119 = CARTESIAN_POINT ( 'NONE',  ( 1.767887307135186300E-015, 6.999999999999999100, 0.0000000000000000000 ) ) ;
#120 = CARTESIAN_POINT ( 'NONE',  ( -0.7499999999999920100, 42.50000000000000700, 0.0000000000000000000 ) ) ;
#121 = CARTESIAN_POINT ( 'NONE',  ( 5.500000000000018700, -1.389054312749080200E-015, 7.347880794884139500E-016 ) ) ;
#122 = CARTESIAN_POINT ( 'NONE',  ( -7.750000000000010700, 8.200000000000001100, 0.0000000000000000000 ) ) ;
#123 = CARTESIAN_POINT ( 'NONE',  ( -6.550000000000014000, 7.000000000000000900, 0.0000000000000000000 ) ) ;
#124 = CARTESIAN_POINT ( 'NONE',  ( 6.550000000000017600, 6.999999999999997300, 8.756224613903593300E-016 ) ) ;
#125 = CARTESIAN_POINT ( 'NONE',  ( 7.750000000000012400, 35.50000000000001400, 9.491012693391999600E-016 ) ) ;
#126 = CARTESIAN_POINT ( 'NONE',  ( 6.500000000000016000, 0.9999999999999991100, 7.960204194457815200E-016 ) ) ;
#127 = DIRECTION ( 'NONE',  ( 1.000000000000000000, 0.0000000000000000000, 1.224646799147353200E-016 ) ) ;
#128 = DIRECTION ( 'NONE',  ( 2.525553295907409900E-016, 1.000000000000000000, -0.0000000000000000000 ) ) ;
#129 = DIRECTION ( 'NONE',  ( 2.525553295907409900E-016, 1.000000000000000000, -0.0000000000000000000 ) ) ;
#130 = DIRECTION ( 'NONE',  ( -1.000000000000000000, 2.648432787750844300E-016, 0.0000000000000000000 ) ) ;
#131 = DIRECTION ( 'NONE',  ( -1.000000000000000000, 2.648432787750844300E-016, 0.0000000000000000000 ) ) ;
#132 = CARTESIAN_POINT ( 'NONE',  ( 6.500000000000024900, 42.50000000000000700, 7.960204194457814200E-016 ) ) ;
#133 = DIRECTION ( 'NONE',  ( -0.7071067811865462400, 0.7071067811865489100, 0.0000000000000000000 ) ) ;
#134 = DIRECTION ( 'NONE',  ( -1.000000000000000000, 0.0000000000000000000, 0.0000000000000000000 ) ) ;
#135 = DIRECTION ( 'NONE',  ( 2.525553295907409900E-016, 1.000000000000000000, -0.0000000000000000000 ) ) ;
#136 = CARTESIAN_POINT ( 'NONE',  ( 8.965714200471308400E-015, 35.50000000000001400, 0.0000000000000000000 ) ) ;
#137 = DIRECTION ( 'NONE',  ( -1.000000000000000000, 2.668805347656621300E-016, 0.0000000000000000000 ) ) ;
#138 = DIRECTION ( 'NONE',  ( 2.525553295907409900E-016, 1.000000000000000000, -0.0000000000000000000 ) ) ;
#139 = DIRECTION ( 'NONE',  ( 2.525553295907409900E-016, 1.000000000000000000, -0.0000000000000000000 ) ) ;
#140 = DIRECTION ( 'NONE',  ( 0.7071067811865466800, 0.7071067811865483500, 8.659560562354920500E-017 ) ) ;
#141 = CARTESIAN_POINT ( 'NONE',  ( 1.767887307135186300E-015, 6.999999999999999100, 0.0000000000000000000 ) ) ;
#142 = CARTESIAN_POINT ( 'NONE',  ( -0.7499999999999965600, 35.50000000000001400, 0.0000000000000000000 ) ) ;
#143 = CARTESIAN_POINT ( 'NONE',  ( 6.550000000000017600, 6.999999999999997300, 8.021436534415183000E-016 ) ) ;
#144 = CARTESIAN_POINT ( 'NONE',  ( 7.750000000000017800, 42.50000000000000700, 9.491012693391997600E-016 ) ) ;
#145 = CARTESIAN_POINT ( 'NONE',  ( -6.550000000000014000, 7.000000000000000900, 0.0000000000000000000 ) ) ;
#146 = DIRECTION ( 'NONE',  ( -1.000000000000000000, 0.0000000000000000000, 0.0000000000000000000 ) ) ;
#147 = CARTESIAN_POINT ( 'NONE',  ( 1.767887307135186300E-015, 6.999999999999999100, 0.0000000000000000000 ) ) ;
#148 = DIRECTION ( 'NONE',  ( 2.525553295907409900E-016, 1.000000000000000000, -0.0000000000000000000 ) ) ;
#149 = DIRECTION ( 'NONE',  ( 2.525553295907409900E-016, 1.000000000000000000, -0.0000000000000000000 ) ) ;
#150 = CARTESIAN_POINT ( 'NONE',  ( 5.500000000000018700, -1.389054312749080200E-015, 6.735557395310465700E-016 ) ) ;
#151 = PRODUCT_RELATED_PRODUCT_CATEGORY ( 'part', '', ( #217 ) ) ;
#152 = PRODUCT_DEFINITION_FORMATION_WITH_SPECIFIED_SOURCE ( 'TUTTO', '', #217, .NOT_KNOWN. ) ;
#153 = EDGE_CURVE ( 'NONE', #232, #299, #279, .T. ) ;
#154 = EDGE_CURVE ( 'NONE', #274, #226, #292, .T. ) ;
#155 = PRODUCT_DEFINITION ( 'NON CONOSCIUTO', '', #152, #318 ) ;
#156 = AXIS2_PLACEMENT_3D ( 'NONE', #46, #26, #25 ) ;
#157 =( GEOMETRIC_REPRESENTATION_CONTEXT ( 3 ) GLOBAL_UNCERTAINTY_ASSIGNED_CONTEXT ( ( #4 ) ) GLOBAL_UNIT_ASSIGNED_CONTEXT ( ( #30, #28, #27 ) ) REPRESENTATION_CONTEXT ( 'NONE', 'WORKASPACE' ) );
#158 = MECHANICAL_DESIGN_GEOMETRIC_PRESENTATION_REPRESENTATION (  '', ( #162 ), #157 ) ;
#159 = EDGE_CURVE ( 'NONE', #266, #240, #300, .T. ) ;
#160 = PRESENTATION_LAYER_ASSIGNMENT (  '', '', ( #162 ) ) ;
#161 = AXIS2_PLACEMENT_3D ( 'NONE', #47, #53, #50 ) ;
#162 = STYLED_ITEM ( 'NONE', ( #354 ), #2 ) ;
#163 = AXIS2_PLACEMENT_3D ( 'NONE', #57, #49, #48 ) ;
#164 =( GEOMETRIC_REPRESENTATION_CONTEXT ( 3 ) GLOBAL_UNCERTAINTY_ASSIGNED_CONTEXT ( ( #5 ) ) GLOBAL_UNIT_ASSIGNED_CONTEXT ( ( #44, #43, #42 ) ) REPRESENTATION_CONTEXT ( 'NONE', 'WORKASPACE' ) );
#165 = AXIS2_PLACEMENT_3D ( 'NONE', #58, #95, #54 ) ;
#166 = AXIS2_PLACEMENT_3D ( 'NONE', #96, #11, #116 ) ;
#167 = AXIS2_PLACEMENT_3D ( 'NONE', #82, #77, #85 ) ;
#168 = EDGE_CURVE ( 'NONE', #299, #225, #317, .T. ) ;
#169 = AXIS2_PLACEMENT_3D ( 'NONE', #70, #69, #71 ) ;
#170 = AXIS2_PLACEMENT_3D ( 'NONE', #67, #79, #68 ) ;
#171 = AXIS2_PLACEMENT_3D ( 'NONE', #86, #90, #88 ) ;
#172 = AXIS2_PLACEMENT_3D ( 'NONE', #74, #72, #76 ) ;
#173 = AXIS2_PLACEMENT_3D ( 'NONE', #91, #97, #87 ) ;
#174 = AXIS2_PLACEMENT_3D ( 'NONE', #84, #83, #81 ) ;
#175 = AXIS2_PLACEMENT_3D ( 'NONE', #100, #94, #93 ) ;
#176 = AXIS2_PLACEMENT_3D ( 'NONE', #102, #99, #101 ) ;
#177 = AXIS2_PLACEMENT_3D ( 'NONE', #109, #113, #127 ) ;
#178 = AXIS2_PLACEMENT_3D ( 'NONE', #18, #108, #61 ) ;
#179 = AXIS2_PLACEMENT_3D ( 'NONE', #36, #105, #29 ) ;
#180 = AXIS2_PLACEMENT_3D ( 'NONE', #7, #149, #55 ) ;
#181 = AXIS2_PLACEMENT_3D ( 'NONE', #147, #45, #41 ) ;
#182 = AXIS2_PLACEMENT_3D ( 'NONE', #15, #9, #8 ) ;
#183 = AXIS2_PLACEMENT_3D ( 'NONE', #16, #62, #60 ) ;
#184 = AXIS2_PLACEMENT_3D ( 'NONE', #141, #138, #137 ) ;
#185 = AXIS2_PLACEMENT_3D ( 'NONE', #136, #135, #134 ) ;
#186 = AXIS2_PLACEMENT_3D ( 'NONE', #142, #22, #78 ) ;
#187 = AXIS2_PLACEMENT_3D ( 'NONE', #52, #13, #110 ) ;
#188 = AXIS2_PLACEMENT_3D ( 'NONE', #63, #129, #66 ) ;
#189 = AXIS2_PLACEMENT_3D ( 'NONE', #14, #34, #131 ) ;
#190 = AXIS2_PLACEMENT_3D ( 'NONE', #40, #6, #146 ) ;
#191 = AXIS2_PLACEMENT_3D ( 'NONE', #119, #148, #130 ) ;
#192 = AXIS2_PLACEMENT_3D ( 'NONE', #114, #75, #59 ) ;
#193 =( GEOMETRIC_REPRESENTATION_CONTEXT ( 3 ) GLOBAL_UNCERTAINTY_ASSIGNED_CONTEXT ( ( #3 ) ) GLOBAL_UNIT_ASSIGNED_CONTEXT ( ( #92, #12, #23 ) ) REPRESENTATION_CONTEXT ( 'NONE', 'WORKASPACE' ) );
#194 = MECHANICAL_DESIGN_GEOMETRIC_PRESENTATION_REPRESENTATION (  '', ( #196 ), #193 ) ;
#195 = PRESENTATION_LAYER_ASSIGNMENT (  '', '', ( #196 ) ) ;
#196 = STYLED_ITEM ( 'NONE', ( #315 ), #1 ) ;
#197 = EDGE_CURVE ( 'NONE', #240, #275, #283, .T. ) ;
#198 = EDGE_CURVE ( 'NONE', #226, #274, #295, .T. ) ;
#199 = EDGE_CURVE ( 'NONE', #269, #266, #289, .T. ) ;
#200 = EDGE_CURVE ( 'NONE', #266, #269, #239, .T. ) ;
#201 = EDGE_CURVE ( 'NONE', #275, #253, #286, .T. ) ;
#202 = EDGE_CURVE ( 'NONE', #238, #265, #233, .T. ) ;
#203 = EDGE_CURVE ( 'NONE', #232, #238, #272, .T. ) ;
#204 = EDGE_CURVE ( 'NONE', #274, #269, #218, .T. ) ;
#205 = EDGE_CURVE ( 'NONE', #275, #240, #221, .T. ) ;
#206 = EDGE_CURVE ( 'NONE', #225, #311, #220, .T. ) ;
#207 = EDGE_CURVE ( 'NONE', #311, #265, #352, .T. ) ;
#208 = EDGE_CURVE ( 'NONE', #226, #266, #353, .T. ) ;
#209 = EDGE_CURVE ( 'NONE', #299, #232, #333, .T. ) ;
#210 = EDGE_CURVE ( 'NONE', #253, #312, #329, .T. ) ;
#211 = EDGE_CURVE ( 'NONE', #265, #311, #321, .T. ) ;
#212 = EDGE_CURVE ( 'NONE', #225, #238, #332, .T. ) ;
#213 = EDGE_CURVE ( 'NONE', #312, #253, #328, .T. ) ;
#214 = EDGE_CURVE ( 'NONE', #238, #225, #335, .T. ) ;
#215 = EDGE_CURVE ( 'NONE', #240, #312, #331, .T. ) ;
#216 = EDGE_CURVE ( 'NONE', #269, #275, #325, .T. ) ;
#217 = PRODUCT ( '0710000003A', '0710000003A', '', ( #21 ) ) ;
#218 = LINE ( 'NONE', #145, #223 ) ;
#219 = VECTOR ( 'NONE', #128, 1000.000000000000000 ) ;
#220 = LINE ( 'NONE', #132, #294 ) ;
#221 = CIRCLE ( 'NONE', #185, 7.750000000000003600 ) ;
#222 = VECTOR ( 'NONE', #115, 1000.000000000000000 ) ;
#223 = VECTOR ( 'NONE', #133, 999.9999999999998900 ) ;
#224 = ORIENTED_EDGE ( 'NONE', *, *, #215, .T. ) ;
#225 = VERTEX_POINT ( 'NONE', #126 ) ;
#226 = VERTEX_POINT ( 'NONE', #124 ) ;
#227 = EDGE_LOOP ( 'NONE', ( #263, #293, #251, #314 ) ) ;
#228 = EDGE_LOOP ( 'NONE', ( #255, #316, #296, #305 ) ) ;
#229 = ORIENTED_EDGE ( 'NONE', *, *, #168, .F. ) ;
#230 = ORIENTED_EDGE ( 'NONE', *, *, #154, .T. ) ;
#231 = ORIENTED_EDGE ( 'NONE', *, *, #199, .F. ) ;
#232 = VERTEX_POINT ( 'NONE', #64 ) ;
#233 = LINE ( 'NONE', #10, #219 ) ;
#234 = EDGE_LOOP ( 'NONE', ( #285, #277 ) ) ;
#235 = ORIENTED_EDGE ( 'NONE', *, *, #202, .T. ) ;
#236 = ORIENTED_EDGE ( 'NONE', *, *, #207, .F. ) ;
#237 = ORIENTED_EDGE ( 'NONE', *, *, #201, .F. ) ;
#238 = VERTEX_POINT ( 'NONE', #65 ) ;
#239 = CIRCLE ( 'NONE', #187, 7.750000000000012400 ) ;
#240 = VERTEX_POINT ( 'NONE', #125 ) ;
#241 = ORIENTED_EDGE ( 'NONE', *, *, #212, .F. ) ;
#242 = ORIENTED_EDGE ( 'NONE', *, *, #154, .F. ) ;
#243 = EDGE_LOOP ( 'NONE', ( #304, #287, #235, #236 ) ) ;
#244 = SURFACE_STYLE_FILL_AREA ( #117 ) ;
#245 = EDGE_LOOP ( 'NONE', ( #229, #254, #260, #241 ) ) ;
#246 = EDGE_LOOP ( 'NONE', ( #303, #284, #301, #297 ) ) ;
#247 = EDGE_LOOP ( 'NONE', ( #242, #270 ) ) ;
#248 = ORIENTED_EDGE ( 'NONE', *, *, #216, .F. ) ;
#249 = EDGE_LOOP ( 'NONE', ( #278, #306, #250, #248 ) ) ;
#250 = ORIENTED_EDGE ( 'NONE', *, *, #205, .F. ) ;
#251 = ORIENTED_EDGE ( 'NONE', *, *, #214, .F. ) ;
#252 = EDGE_LOOP ( 'NONE', ( #307, #298 ) ) ;
#253 = VERTEX_POINT ( 'NONE', #120 ) ;
#254 = ORIENTED_EDGE ( 'NONE', *, *, #209, .T. ) ;
#255 = ORIENTED_EDGE ( 'NONE', *, *, #214, .T. ) ;
#256 = ORIENTED_EDGE ( 'NONE', *, *, #153, .F. ) ;
#257 = ORIENTED_EDGE ( 'NONE', *, *, #210, .F. ) ;
#258 = ORIENTED_EDGE ( 'NONE', *, *, #200, .T. ) ;
#259 = CLOSED_SHELL ( 'NONE', ( #367, #372, #364, #363, #368, #361, #366, #360, #362, #369, #365, #370, #371 ) ) ;
#260 = ORIENTED_EDGE ( 'NONE', *, *, #203, .T. ) ;
#261 = ORIENTED_EDGE ( 'NONE', *, *, #208, .T. ) ;
#262 = ORIENTED_EDGE ( 'NONE', *, *, #208, .F. ) ;
#263 = ORIENTED_EDGE ( 'NONE', *, *, #153, .T. ) ;
#264 = EDGE_LOOP ( 'NONE', ( #267, #224, #257, #237 ) ) ;
#265 = VERTEX_POINT ( 'NONE', #118 ) ;
#266 = VERTEX_POINT ( 'NONE', #107 ) ;
#267 = ORIENTED_EDGE ( 'NONE', *, *, #205, .T. ) ;
#268 = EDGE_LOOP ( 'NONE', ( #230, #261, #231, #280 ) ) ;
#269 = VERTEX_POINT ( 'NONE', #122 ) ;
#270 = ORIENTED_EDGE ( 'NONE', *, *, #198, .F. ) ;
#271 = ORIENTED_EDGE ( 'NONE', *, *, #204, .T. ) ;
#272 = LINE ( 'NONE', #80, #222 ) ;
#273 = EDGE_LOOP ( 'NONE', ( #256, #302 ) ) ;
#274 = VERTEX_POINT ( 'NONE', #123 ) ;
#275 = VERTEX_POINT ( 'NONE', #103 ) ;
#276 = VECTOR ( 'NONE', #112, 1000.000000000000000 ) ;
#277 = ORIENTED_EDGE ( 'NONE', *, *, #207, .T. ) ;
#278 = ORIENTED_EDGE ( 'NONE', *, *, #199, .T. ) ;
#279 = CIRCLE ( 'NONE', #192, 5.500000000000018700 ) ;
#280 = ORIENTED_EDGE ( 'NONE', *, *, #204, .F. ) ;
#281 = ORIENTED_EDGE ( 'NONE', *, *, #159, .F. ) ;
#282 = ORIENTED_EDGE ( 'NONE', *, *, #200, .F. ) ;
#283 = CIRCLE ( 'NONE', #190, 7.750000000000003600 ) ;
#284 = ORIENTED_EDGE ( 'NONE', *, *, #197, .T. ) ;
#285 = ORIENTED_EDGE ( 'NONE', *, *, #211, .T. ) ;
#286 = CIRCLE ( 'NONE', #186, 6.999999999999994700 ) ;
#287 = ORIENTED_EDGE ( 'NONE', *, *, #212, .T. ) ;
#288 = ORIENTED_EDGE ( 'NONE', *, *, #197, .F. ) ;
#289 = CIRCLE ( 'NONE', #188, 7.750000000000012400 ) ;
#290 = COLOUR_RGB ( '',0.3960784313725490000, 0.4784313725490195700, 0.8039215686274510100 ) ;
#291 = VECTOR ( 'NONE', #111, 999.9999999999998900 ) ;
#292 = CIRCLE ( 'NONE', #191, 6.550000000000015800 ) ;
#293 = ORIENTED_EDGE ( 'NONE', *, *, #168, .T. ) ;
#294 = VECTOR ( 'NONE', #139, 1000.000000000000000 ) ;
#295 = CIRCLE ( 'NONE', #189, 6.550000000000015800 ) ;
#296 = ORIENTED_EDGE ( 'NONE', *, *, #211, .F. ) ;
#297 = ORIENTED_EDGE ( 'NONE', *, *, #213, .F. ) ;
#298 = ORIENTED_EDGE ( 'NONE', *, *, #213, .T. ) ;
#299 = VERTEX_POINT ( 'NONE', #121 ) ;
#300 = LINE ( 'NONE', #144, #276 ) ;
#301 = ORIENTED_EDGE ( 'NONE', *, *, #201, .T. ) ;
#302 = ORIENTED_EDGE ( 'NONE', *, *, #209, .F. ) ;
#303 = ORIENTED_EDGE ( 'NONE', *, *, #215, .F. ) ;
#304 = ORIENTED_EDGE ( 'NONE', *, *, #206, .F. ) ;
#305 = ORIENTED_EDGE ( 'NONE', *, *, #202, .F. ) ;
#306 = ORIENTED_EDGE ( 'NONE', *, *, #159, .T. ) ;
#307 = ORIENTED_EDGE ( 'NONE', *, *, #210, .T. ) ;
#308 = EDGE_LOOP ( 'NONE', ( #281, #258, #313, #288 ) ) ;
#309 = EDGE_LOOP ( 'NONE', ( #262, #310, #271, #282 ) ) ;
#310 = ORIENTED_EDGE ( 'NONE', *, *, #198, .T. ) ;
#311 = VERTEX_POINT ( 'NONE', #106 ) ;
#312 = VERTEX_POINT ( 'NONE', #104 ) ;
#313 = ORIENTED_EDGE ( 'NONE', *, *, #216, .T. ) ;
#314 = ORIENTED_EDGE ( 'NONE', *, *, #203, .F. ) ;
#315 = PRESENTATION_STYLE_ASSIGNMENT (( #38 ) ) ;
#316 = ORIENTED_EDGE ( 'NONE', *, *, #206, .T. ) ;
#317 = LINE ( 'NONE', #150, #291 ) ;
#318 = PRODUCT_DEFINITION_CONTEXT ( 'detailed design', #20, 'design' ) ;
#319 = PRODUCT_DEFINITION_SHAPE ( 'NONE', 'NONE',  #155 ) ;
#320 = FACE_OUTER_BOUND ( 'NONE', #268, .T. ) ;
#321 = CIRCLE ( 'NONE', #181, 6.500000000000012400 ) ;
#322 = FACE_OUTER_BOUND ( 'NONE', #247, .T. ) ;
#323 = VECTOR ( 'NONE', #140, 1000.000000000000000 ) ;
#324 = VECTOR ( 'NONE', #19, 1000.000000000000000 ) ;
#325 = LINE ( 'NONE', #24, #324 ) ;
#326 = CYLINDRICAL_SURFACE ( 'NONE', #176, 6.500000000000014200 ) ;
#327 = FACE_OUTER_BOUND ( 'NONE', #243, .T. ) ;
#328 = CIRCLE ( 'NONE', #179, 0.7500000000000027800 ) ;
#329 = CIRCLE ( 'NONE', #182, 0.7500000000000027800 ) ;
#330 = FACE_BOUND ( 'NONE', #234, .T. ) ;
#331 = CIRCLE ( 'NONE', #177, 6.999999999999994700 ) ;
#332 = CIRCLE ( 'NONE', #180, 6.500000000000015100 ) ;
#333 = CIRCLE ( 'NONE', #183, 5.500000000000018700 ) ;
#334 = FACE_OUTER_BOUND ( 'NONE', #273, .T. ) ;
#335 = CIRCLE ( 'NONE', #178, 6.500000000000015100 ) ;
#336 = FACE_OUTER_BOUND ( 'NONE', #228, .T. ) ;
#337 = TOROIDAL_SURFACE ( 'NONE', #167, 0.7500000000000055500, 6.999999999999994700 ) ;
#338 = FACE_OUTER_BOUND ( 'NONE', #308, .T. ) ;
#339 = FACE_OUTER_BOUND ( 'NONE', #246, .T. ) ;
#340 = CYLINDRICAL_SURFACE ( 'NONE', #161, 7.750000000000008000 ) ;
#341 = SURFACE_STYLE_FILL_AREA ( #33 ) ;
#342 = CONICAL_SURFACE ( 'NONE', #170, 5.500000000000018700, 0.7853981633974461700 ) ;
#343 = COLOUR_RGB ( '',0.3960784313725490000, 0.4784313725490195700, 0.8039215686274510100 ) ;
#344 = FACE_OUTER_BOUND ( 'NONE', #249, .T. ) ;
#345 = FACE_OUTER_BOUND ( 'NONE', #245, .T. ) ;
#346 = TOROIDAL_SURFACE ( 'NONE', #165, 0.7500000000000055500, 6.999999999999994700 ) ;
#347 = CONICAL_SURFACE ( 'NONE', #172, 6.550000000000015800, 0.7853981633974468400 ) ;
#348 = FACE_OUTER_BOUND ( 'NONE', #227, .T. ) ;
#349 = FACE_OUTER_BOUND ( 'NONE', #264, .T. ) ;
#350 = CYLINDRICAL_SURFACE ( 'NONE', #171, 6.500000000000014200 ) ;
#351 = FACE_OUTER_BOUND ( 'NONE', #252, .T. ) ;
#352 = CIRCLE ( 'NONE', #184, 6.500000000000012400 ) ;
#353 = LINE ( 'NONE', #143, #323 ) ;
#354 = PRESENTATION_STYLE_ASSIGNMENT (( #31 ) ) ;
#355 = SHAPE_DEFINITION_REPRESENTATION ( #319, #2 ) ;
#356 = CONICAL_SURFACE ( 'NONE', #166, 6.550000000000015800, 0.7853981633974468400 ) ;
#357 = CONICAL_SURFACE ( 'NONE', #174, 5.500000000000018700, 0.7853981633974461700 ) ;
#358 = CYLINDRICAL_SURFACE ( 'NONE', #169, 7.750000000000008000 ) ;
#359 = FACE_OUTER_BOUND ( 'NONE', #309, .T. ) ;
#360 = ADVANCED_FACE ( 'NONE', ( #327 ), #326, .T. ) ;
#361 = ADVANCED_FACE ( 'NONE', ( #334 ), #98, .F. ) ;
#362 = ADVANCED_FACE ( 'NONE', ( #322, #330 ), #89, .F. ) ;
#363 = ADVANCED_FACE ( 'NONE', ( #336 ), #350, .T. ) ;
#364 = ADVANCED_FACE ( 'NONE', ( #320 ), #347, .T. ) ;
#365 = ADVANCED_FACE ( 'NONE', ( #338 ), #358, .T. ) ;
#366 = ADVANCED_FACE ( 'NONE', ( #345 ), #342, .T. ) ;
#367 = ADVANCED_FACE ( 'NONE', ( #349 ), #337, .T. ) ;
#368 = ADVANCED_FACE ( 'NONE', ( #348 ), #357, .T. ) ;
#369 = ADVANCED_FACE ( 'NONE', ( #359 ), #356, .T. ) ;
#370 = ADVANCED_FACE ( 'NONE', ( #339 ), #346, .T. ) ;
#371 = ADVANCED_FACE ( 'NONE', ( #351 ), #51, .F. ) ;
#372 = ADVANCED_FACE ( 'NONE', ( #344 ), #340, .T. ) ;
ENDSEC;
END-ISO-10303-21;
