ISO-10303-21;
HEADER;
FILE_DESCRIPTION(( 'MV.11SP00.12.STEP' ), '1');
FILE_NAME( 'MV.11SP00.12.STEP', '2018-10-03T17:28:45',( 'Sopra'),('sopra-pneumatic.com'), 'SwSTEP 2.0','SolidWorks 2009','' );
FILE_SCHEMA (( 'AUTOMOTIVE_DESIGN' ));
ENDSEC;

DATA;
#1 = PRODUCT_DEFINITION_CONTEXT ( 'detailed design', #362, 'design' ) ;
#2 = PRODUCT_DEFINITION_SHAPE ( 'NONE', 'NONE',  #296 ) ;
#3 = PRODUCT ( '0710000005A', '0710000005A', '', ( #334 ) ) ;
#4 = ADVANCED_FACE ( 'NONE', ( #224 ), #95, .T. ) ;
#5 = ADVANCED_FACE ( 'NONE', ( #147 ), #58, .F. ) ;
#6 = ADVANCED_FACE ( 'NONE', ( #223 ), #146, .T. ) ;
#7 = ADVANCED_FACE ( 'NONE', ( #93 ), #229, .T. ) ;
#8 = ADVANCED_FACE ( 'NONE', ( #176, #150 ), #62, .F. ) ;
#9 = ADVANCED_FACE ( 'NONE', ( #152 ), #97, .T. ) ;
#10 = ADVANCED_FACE ( 'NONE', ( #166 ), #172, .T. ) ;
#11 = ADVANCED_FACE ( 'NONE', ( #138 ), #75, .F. ) ;
#12 = ADVANCED_FACE ( 'NONE', ( #171 ), #161, .T. ) ;
#13 = ADVANCED_FACE ( 'NONE', ( #141 ), #135, .T. ) ;
#14 = ADVANCED_FACE ( 'NONE', ( #144 ), #132, .T. ) ;
#15 = ADVANCED_FACE ( 'NONE', ( #174 ), #145, .T. ) ;
#16 = ADVANCED_FACE ( 'NONE', ( #178 ), #130, .T. ) ;
#17 = DIRECTION ( 'NONE',  ( -1.000000000000000000, 0.0000000000000000000, 0.0000000000000000000 ) ) ;
#18 = CARTESIAN_POINT ( 'NONE',  ( 10.75000000000001100, 10.99999999999999600, 1.377727649040773600E-015 ) ) ;
#19 = CARTESIAN_POINT ( 'NONE',  ( 8.250000000000008900, 10.99999999999999600, 1.010333609296567300E-015 ) ) ;
#20 = CARTESIAN_POINT ( 'NONE',  ( -1.301042606982605300E-015, 78.00000000000000000, 0.0000000000000000000 ) ) ;
#21 = DIRECTION ( 'NONE',  ( -1.000000000000000000, 0.0000000000000000000, 0.0000000000000000000 ) ) ;
#22 = DIRECTION ( 'NONE',  ( -1.668003342285391700E-017, 1.000000000000000000, -0.0000000000000000000 ) ) ;
#23 = CARTESIAN_POINT ( 'NONE',  ( 11.75000000000000900, 11.99999999999999600, 1.438959988998141100E-015 ) ) ;
#24 = CARTESIAN_POINT ( 'NONE',  ( -1.750000000000009500, 78.00000000000000000, 0.0000000000000000000 ) ) ;
#25 = DIRECTION ( 'NONE',  ( -1.668003342285391700E-017, 1.000000000000000000, -0.0000000000000000000 ) ) ;
#26 = DIRECTION ( 'NONE',  ( -1.668003342285391700E-017, 1.000000000000000000, -0.0000000000000000000 ) ) ;
#27 = CARTESIAN_POINT ( 'NONE',  ( 8.250000000000008900, 1.200000000000006800, 1.010333609296567500E-015 ) ) ;
#28 = CARTESIAN_POINT ( 'NONE',  ( 1.750000000000007100, 78.00000000000000000, 0.0000000000000000000 ) ) ;
#29 = DIRECTION ( 'NONE',  ( -1.668003342285391700E-017, 1.000000000000000000, -0.0000000000000000000 ) ) ;
#30 = CARTESIAN_POINT ( 'NONE',  ( -1.301042606982605300E-015, 78.00000000000000000, 0.0000000000000000000 ) ) ;
#31 = DIRECTION ( 'NONE',  ( -1.668003342285391700E-017, 1.000000000000000000, -0.0000000000000000000 ) ) ;
#32 = CARTESIAN_POINT ( 'NONE',  ( 11.75000000000000900, 68.00000000000000000, 1.438959988998141300E-015 ) ) ;
#33 = CARTESIAN_POINT ( 'NONE',  ( -1.084202172485504400E-015, 68.00000000000000000, 0.0000000000000000000 ) ) ;
#34 = DIRECTION ( 'NONE',  ( 1.668003342285391700E-017, -1.000000000000000000, 0.0000000000000000000 ) ) ;
#35 = DIRECTION ( 'NONE',  ( -1.668003342285391700E-017, 1.000000000000000000, -0.0000000000000000000 ) ) ;
#36 = CARTESIAN_POINT ( 'NONE',  ( -11.75000000000000900, 11.99999999999999600, 0.0000000000000000000 ) ) ;
#37 = CARTESIAN_POINT ( 'NONE',  ( -1.834803676513927900E-016, 10.99999999999999600, 0.0000000000000000000 ) ) ;
#38 = CARTESIAN_POINT ( 'NONE',  ( 7.050000000000013100, 1.175942356311203300E-016, 9.368548013477266000E-016 ) ) ;
#39 = DIRECTION ( 'NONE',  ( -1.668003342285391700E-017, 1.000000000000000000, -0.0000000000000000000 ) ) ;
#40 = DIRECTION ( 'NONE',  ( -1.668003342285391700E-017, 1.000000000000000000, -0.0000000000000000000 ) ) ;
#41 = CARTESIAN_POINT ( 'NONE',  ( -10.75000000000001100, 10.99999999999999600, 0.0000000000000000000 ) ) ;
#42 = DIRECTION ( 'NONE',  ( -1.000000000000000000, 0.0000000000000000000, 0.0000000000000000000 ) ) ;
#43 = CARTESIAN_POINT ( 'NONE',  ( -7.050000000000014000, -1.175942356311203600E-016, 0.0000000000000000000 ) ) ;
#44 = CARTESIAN_POINT ( 'NONE',  ( 11.75000000000000900, 78.00000000000000000, 1.438959988998141300E-015 ) ) ;
#45 = DIRECTION ( 'NONE',  ( -1.668003342285391700E-017, 1.000000000000000000, -0.0000000000000000000 ) ) ;
#46 = CARTESIAN_POINT ( 'NONE',  ( -1.301042606982605300E-015, 78.00000000000000000, 0.0000000000000000000 ) ) ;
#47 = CARTESIAN_POINT ( 'NONE',  ( -11.75000000000001200, 68.00000000000000000, 0.0000000000000000000 ) ) ;
#48 = DIRECTION ( 'NONE',  ( -1.000000000000000000, 0.0000000000000000000, 0.0000000000000000000 ) ) ;
#49 = DIRECTION ( 'NONE',  ( -1.668003342285391700E-017, 1.000000000000000000, 0.0000000000000000000 ) ) ;
#50 = CARTESIAN_POINT ( 'NONE',  ( -8.250000000000010700, 78.00000000000000000, 0.0000000000000000000 ) ) ;
#51 = DIRECTION ( 'NONE',  ( -1.000000000000000000, 0.0000000000000000000, 0.0000000000000000000 ) ) ;
#52 = DIRECTION ( 'NONE',  ( -1.668003342285391700E-017, 1.000000000000000000, -0.0000000000000000000 ) ) ;
#53 = CARTESIAN_POINT ( 'NONE',  ( -2.001604010742468300E-016, 11.99999999999999600, 0.0000000000000000000 ) ) ;
#54 = CARTESIAN_POINT ( 'NONE',  ( 1.925929944387235900E-031, 0.0000000000000000000, 0.0000000000000000000 ) ) ;
#55 = CARTESIAN_POINT ( 'NONE',  ( 8.250000000000008900, 11.00000000000000000, 0.0000000000000000000 ) ) ;
#56 = DIRECTION ( 'NONE',  ( -1.000000000000000000, -1.668003342285391700E-017, 0.0000000000000000000 ) ) ;
#57 = CARTESIAN_POINT ( 'NONE',  ( -1.834803676513927900E-016, 10.99999999999999600, 0.0000000000000000000 ) ) ;
#58 = PLANE ( 'NONE',  #267 ) ;
#59 = DIRECTION ( 'NONE',  ( -1.668003342285391700E-017, 1.000000000000000000, -0.0000000000000000000 ) ) ;
#60 = CARTESIAN_POINT ( 'NONE',  ( -1.301042606982605300E-015, 78.00000000000000000, 0.0000000000000000000 ) ) ;
#61 = DIRECTION ( 'NONE',  ( -1.668003342285391700E-017, 1.000000000000000000, -0.0000000000000000000 ) ) ;
#62 = PLANE ( 'NONE',  #265 ) ;
#63 = CARTESIAN_POINT ( 'NONE',  ( -8.250000000000008900, 10.99999999999999600, 0.0000000000000000000 ) ) ;
#64 = DIRECTION ( 'NONE',  ( -1.668003342285391700E-017, 1.000000000000000000, -0.0000000000000000000 ) ) ;
#65 = DIRECTION ( 'NONE',  ( -1.668003342285391700E-017, 1.000000000000000000, 0.0000000000000000000 ) ) ;
#66 = DIRECTION ( 'NONE',  ( -1.000000000000000000, -1.668003342285391700E-017, 0.0000000000000000000 ) ) ;
#67 = CARTESIAN_POINT ( 'NONE',  ( 1.750000000000007100, 78.00000000000000000, 8.266365894244646200E-016 ) ) ;
#68 = CARTESIAN_POINT ( 'NONE',  ( -1.301042606982605300E-015, 78.00000000000000000, 0.0000000000000000000 ) ) ;
#69 = CARTESIAN_POINT ( 'NONE',  ( -1.134242272754066100E-015, 68.00000000000000000, 0.0000000000000000000 ) ) ;
#70 = CARTESIAN_POINT ( 'NONE',  ( -11.75000000000001200, 78.00000000000000000, 0.0000000000000000000 ) ) ;
#71 = DIRECTION ( 'NONE',  ( -1.000000000000000000, -1.668003342285392000E-017, 0.0000000000000000000 ) ) ;
#72 = DIRECTION ( 'NONE',  ( -1.000000000000000000, -1.668003342285391700E-017, 0.0000000000000000000 ) ) ;
#73 = DIRECTION ( 'NONE',  ( -1.000000000000000000, -1.668003342285391700E-017, 0.0000000000000000000 ) ) ;
#74 = DIRECTION ( 'NONE',  ( -1.668003342285391700E-017, 1.000000000000000000, -0.0000000000000000000 ) ) ;
#75 = PLANE ( 'NONE',  #260 ) ;
#76 = CARTESIAN_POINT ( 'NONE',  ( -8.250000000000008900, 1.200000000000006400, 0.0000000000000000000 ) ) ;
#77 = DIRECTION ( 'NONE',  ( -1.000000000000000000, -1.668003342285392000E-017, 0.0000000000000000000 ) ) ;
#78 = DIRECTION ( 'NONE',  ( -1.668003342285391700E-017, 1.000000000000000000, -0.0000000000000000000 ) ) ;
#79 = CARTESIAN_POINT ( 'NONE',  ( 9.807378903310230900E-034, -5.879711781556017900E-017, 0.0000000000000000000 ) ) ;
#80 = DIRECTION ( 'NONE',  ( -1.000000000000000000, 0.0000000000000000000, 0.0000000000000000000 ) ) ;
#81 = DIRECTION ( 'NONE',  ( -1.000000000000000000, 0.0000000000000000000, 0.0000000000000000000 ) ) ;
#82 = CARTESIAN_POINT ( 'NONE',  ( -7.050000000000013100, -1.175942356311203300E-016, 0.0000000000000000000 ) ) ;
#83 = DIRECTION ( 'NONE',  ( -1.000000000000000000, 0.0000000000000000000, 0.0000000000000000000 ) ) ;
#84 = CARTESIAN_POINT ( 'NONE',  ( -1.834803676513927900E-016, 10.99999999999999600, 0.0000000000000000000 ) ) ;
#85 = CARTESIAN_POINT ( 'NONE',  ( -1.084202172485504400E-015, 68.00000000000000000, 0.0000000000000000000 ) ) ;
#86 = CARTESIAN_POINT ( 'NONE',  ( 1.925929944387235900E-031, 0.0000000000000000000, 0.0000000000000000000 ) ) ;
#87 = DIRECTION ( 'NONE',  ( 1.000000000000000000, 1.668003342285391700E-017, 0.0000000000000000000 ) ) ;
#88 = DIRECTION ( 'NONE',  ( -1.000000000000000000, 0.0000000000000000000, 0.0000000000000000000 ) ) ;
#89 = DIRECTION ( 'NONE',  ( -1.000000000000000000, 0.0000000000000000000, 0.0000000000000000000 ) ) ;
#90 = DIRECTION ( 'NONE',  ( -0.7071067811865441300, 0.7071067811865507900, 0.0000000000000000000 ) ) ;
#91 = DIRECTION ( 'NONE',  ( -1.668003342285391700E-017, 1.000000000000000000, -0.0000000000000000000 ) ) ;
#92 = DIRECTION ( 'NONE',  ( -1.668003342285391700E-017, 1.000000000000000000, -0.0000000000000000000 ) ) ;
#93 = FACE_OUTER_BOUND ( 'NONE', #203, .T. ) ;
#94 = ORIENTED_EDGE ( 'NONE', *, *, #290, .T. ) ;
#95 = TOROIDAL_SURFACE ( 'NONE', #269, 1.750000000000009500, 9.999999999999998200 ) ;
#96 = COLOUR_RGB ( '',0.3960784313725490000, 0.4784313725490195700, 0.8039215686274510100 ) ;
#97 = CYLINDRICAL_SURFACE ( 'NONE', #263, 8.250000000000008900 ) ;
#98 = SURFACE_STYLE_FILL_AREA ( #322 ) ;
#99 = PRESENTATION_STYLE_ASSIGNMENT (( #360 ) ) ;
#100 = CIRCLE ( 'NONE', #242, 9.999999999999998200 ) ;
#101 = LINE ( 'NONE', #335, #103 ) ;
#102 = CIRCLE ( 'NONE', #241, 7.050000000000013100 ) ;
#103 = VECTOR ( 'NONE', #337, 1000.000000000000100 ) ;
#104 = CIRCLE ( 'NONE', #240, 8.250000000000008900 ) ;
#105 = CIRCLE ( 'NONE', #243, 9.999999999999998200 ) ;
#106 = CIRCLE ( 'NONE', #255, 11.75000000000001100 ) ;
#107 = COLOUR_RGB ( '',0.3960784313725490000, 0.4784313725490195700, 0.8039215686274510100 ) ;
#108 = VECTOR ( 'NONE', #319, 1000.000000000000000 ) ;
#109 = CIRCLE ( 'NONE', #245, 7.050000000000013100 ) ;
#110 = LINE ( 'NONE', #312, #108 ) ;
#111 = CIRCLE ( 'NONE', #244, 8.250000000000008900 ) ;
#112 = CIRCLE ( 'NONE', #247, 10.75000000000001100 ) ;
#113 = VECTOR ( 'NONE', #327, 1000.000000000000000 ) ;
#114 = CIRCLE ( 'NONE', #246, 1.750000000000008200 ) ;
#115 = VECTOR ( 'NONE', #311, 1000.000000000000000 ) ;
#116 = LINE ( 'NONE', #336, #113 ) ;
#117 = CIRCLE ( 'NONE', #248, 8.250000000000008900 ) ;
#118 = LINE ( 'NONE', #316, #115 ) ;
#119 = VECTOR ( 'NONE', #90, 1000.000000000000100 ) ;
#120 = CIRCLE ( 'NONE', #249, 8.250000000000008900 ) ;
#121 = CIRCLE ( 'NONE', #252, 11.75000000000000900 ) ;
#122 = LINE ( 'NONE', #43, #119 ) ;
#123 = VECTOR ( 'NONE', #45, 1000.000000000000000 ) ;
#124 = CIRCLE ( 'NONE', #251, 11.75000000000000900 ) ;
#125 = LINE ( 'NONE', #50, #123 ) ;
#126 = VECTOR ( 'NONE', #26, 1000.000000000000000 ) ;
#127 = LINE ( 'NONE', #70, #126 ) ;
#128 = CIRCLE ( 'NONE', #253, 10.75000000000001100 ) ;
#129 = ORIENTED_EDGE ( 'NONE', *, *, #291, .F. ) ;
#130 = CYLINDRICAL_SURFACE ( 'NONE', #254, 11.75000000000001100 ) ;
#131 = VECTOR ( 'NONE', #40, 1000.000000000000000 ) ;
#132 = CONICAL_SURFACE ( 'NONE', #258, 10.75000000000001100, 0.7853981633974466100 ) ;
#133 = CIRCLE ( 'NONE', #250, 11.75000000000001100 ) ;
#134 = VERTEX_POINT ( 'NONE', #41 ) ;
#135 = CONICAL_SURFACE ( 'NONE', #259, 10.75000000000001100, 0.7853981633974466100 ) ;
#136 = SURFACE_STYLE_FILL_AREA ( #344 ) ;
#137 = EDGE_LOOP ( 'NONE', ( #225, #169, #227, #231 ) ) ;
#138 = FACE_OUTER_BOUND ( 'NONE', #204, .T. ) ;
#139 = VERTEX_POINT ( 'NONE', #67 ) ;
#140 = ORIENTED_EDGE ( 'NONE', *, *, #281, .T. ) ;
#141 = FACE_OUTER_BOUND ( 'NONE', #175, .T. ) ;
#142 = CIRCLE ( 'NONE', #257, 1.750000000000008200 ) ;
#143 = EDGE_LOOP ( 'NONE', ( #153, #184, #149, #151 ) ) ;
#144 = FACE_OUTER_BOUND ( 'NONE', #214, .T. ) ;
#145 = TOROIDAL_SURFACE ( 'NONE', #256, 1.750000000000009500, 9.999999999999998200 ) ;
#146 = CONICAL_SURFACE ( 'NONE', #268, 7.050000000000014000, 0.7853981633974437300 ) ;
#147 = FACE_OUTER_BOUND ( 'NONE', #179, .T. ) ;
#148 = ORIENTED_EDGE ( 'NONE', *, *, #272, .F. ) ;
#149 = ORIENTED_EDGE ( 'NONE', *, *, #293, .F. ) ;
#150 = FACE_BOUND ( 'NONE', #207, .T. ) ;
#151 = ORIENTED_EDGE ( 'NONE', *, *, #277, .F. ) ;
#152 = FACE_OUTER_BOUND ( 'NONE', #205, .T. ) ;
#153 = ORIENTED_EDGE ( 'NONE', *, *, #286, .T. ) ;
#154 = EDGE_LOOP ( 'NONE', ( #215, #94, #209, #167 ) ) ;
#155 = ORIENTED_EDGE ( 'NONE', *, *, #292, .F. ) ;
#156 = ORIENTED_EDGE ( 'NONE', *, *, #282, .F. ) ;
#157 = VERTEX_POINT ( 'NONE', #19 ) ;
#158 = ORIENTED_EDGE ( 'NONE', *, *, #287, .T. ) ;
#159 = LINE ( 'NONE', #44, #131 ) ;
#160 = ORIENTED_EDGE ( 'NONE', *, *, #281, .F. ) ;
#161 = CONICAL_SURFACE ( 'NONE', #264, 7.050000000000014000, 0.7853981633974437300 ) ;
#162 = VERTEX_POINT ( 'NONE', #38 ) ;
#163 = ORIENTED_EDGE ( 'NONE', *, *, #271, .F. ) ;
#164 = ORIENTED_EDGE ( 'NONE', *, *, #289, .T. ) ;
#165 = ORIENTED_EDGE ( 'NONE', *, *, #273, .T. ) ;
#166 = FACE_OUTER_BOUND ( 'NONE', #210, .T. ) ;
#167 = ORIENTED_EDGE ( 'NONE', *, *, #289, .F. ) ;
#168 = ORIENTED_EDGE ( 'NONE', *, *, #292, .T. ) ;
#169 = ORIENTED_EDGE ( 'NONE', *, *, #274, .T. ) ;
#170 = ORIENTED_EDGE ( 'NONE', *, *, #286, .F. ) ;
#171 = FACE_OUTER_BOUND ( 'NONE', #206, .T. ) ;
#172 = CYLINDRICAL_SURFACE ( 'NONE', #262, 11.75000000000001100 ) ;
#173 = ORIENTED_EDGE ( 'NONE', *, *, #287, .F. ) ;
#174 = FACE_OUTER_BOUND ( 'NONE', #154, .T. ) ;
#175 = EDGE_LOOP ( 'NONE', ( #180, #189, #220, #226 ) ) ;
#176 = FACE_OUTER_BOUND ( 'NONE', #198, .T. ) ;
#177 = PRESENTATION_STYLE_ASSIGNMENT (( #358 ) ) ;
#178 = FACE_OUTER_BOUND ( 'NONE', #137, .T. ) ;
#179 = EDGE_LOOP ( 'NONE', ( #188, #197 ) ) ;
#180 = ORIENTED_EDGE ( 'NONE', *, *, #283, .T. ) ;
#181 = ORIENTED_EDGE ( 'NONE', *, *, #279, .T. ) ;
#182 = VERTEX_POINT ( 'NONE', #24 ) ;
#183 = ORIENTED_EDGE ( 'NONE', *, *, #293, .T. ) ;
#184 = ORIENTED_EDGE ( 'NONE', *, *, #291, .T. ) ;
#185 = ORIENTED_EDGE ( 'NONE', *, *, #270, .T. ) ;
#186 = ORIENTED_EDGE ( 'NONE', *, *, #273, .F. ) ;
#187 = VERTEX_POINT ( 'NONE', #76 ) ;
#188 = ORIENTED_EDGE ( 'NONE', *, *, #284, .T. ) ;
#189 = ORIENTED_EDGE ( 'NONE', *, *, #285, .T. ) ;
#190 = VERTEX_POINT ( 'NONE', #32 ) ;
#191 = EDGE_LOOP ( 'NONE', ( #195, #185, #164, #163 ) ) ;
#192 = ORIENTED_EDGE ( 'NONE', *, *, #285, .F. ) ;
#193 = ORIENTED_EDGE ( 'NONE', *, *, #283, .F. ) ;
#194 = ORIENTED_EDGE ( 'NONE', *, *, #277, .T. ) ;
#195 = ORIENTED_EDGE ( 'NONE', *, *, #290, .F. ) ;
#196 = ORIENTED_EDGE ( 'NONE', *, *, #274, .F. ) ;
#197 = ORIENTED_EDGE ( 'NONE', *, *, #271, .T. ) ;
#198 = EDGE_LOOP ( 'NONE', ( #193, #186 ) ) ;
#199 = VERTEX_POINT ( 'NONE', #36 ) ;
#200 = ORIENTED_EDGE ( 'NONE', *, *, #280, .T. ) ;
#201 = VERTEX_POINT ( 'NONE', #63 ) ;
#202 = ORIENTED_EDGE ( 'NONE', *, *, #275, .F. ) ;
#203 = EDGE_LOOP ( 'NONE', ( #183, #140, #232, #202 ) ) ;
#204 = EDGE_LOOP ( 'NONE', ( #170, #155 ) ) ;
#205 = EDGE_LOOP ( 'NONE', ( #160, #219, #218, #173 ) ) ;
#206 = EDGE_LOOP ( 'NONE', ( #129, #168, #194, #156 ) ) ;
#207 = EDGE_LOOP ( 'NONE', ( #181, #158 ) ) ;
#208 = ORIENTED_EDGE ( 'NONE', *, *, #278, .F. ) ;
#209 = ORIENTED_EDGE ( 'NONE', *, *, #284, .F. ) ;
#210 = EDGE_LOOP ( 'NONE', ( #212, #221, #208, #148 ) ) ;
#211 = VERTEX_POINT ( 'NONE', #47 ) ;
#212 = ORIENTED_EDGE ( 'NONE', *, *, #276, .T. ) ;
#213 = VERTEX_POINT ( 'NONE', #18 ) ;
#214 = EDGE_LOOP ( 'NONE', ( #192, #165, #200, #196 ) ) ;
#215 = ORIENTED_EDGE ( 'NONE', *, *, #278, .T. ) ;
#216 = VERTEX_POINT ( 'NONE', #27 ) ;
#217 = VERTEX_POINT ( 'NONE', #23 ) ;
#218 = ORIENTED_EDGE ( 'NONE', *, *, #275, .T. ) ;
#219 = ORIENTED_EDGE ( 'NONE', *, *, #282, .T. ) ;
#220 = ORIENTED_EDGE ( 'NONE', *, *, #276, .F. ) ;
#221 = ORIENTED_EDGE ( 'NONE', *, *, #261, .T. ) ;
#222 = SHAPE_DEFINITION_REPRESENTATION ( #2, #370 ) ;
#223 = FACE_OUTER_BOUND ( 'NONE', #143, .T. ) ;
#224 = FACE_OUTER_BOUND ( 'NONE', #191, .T. ) ;
#225 = ORIENTED_EDGE ( 'NONE', *, *, #261, .F. ) ;
#226 = ORIENTED_EDGE ( 'NONE', *, *, #280, .F. ) ;
#227 = ORIENTED_EDGE ( 'NONE', *, *, #272, .T. ) ;
#228 = CLOSED_SHELL ( 'NONE', ( #15, #10, #13, #7, #6, #11, #12, #9, #8, #14, #16, #4, #5 ) ) ;
#229 = CYLINDRICAL_SURFACE ( 'NONE', #266, 8.250000000000008900 ) ;
#230 = VERTEX_POINT ( 'NONE', #82 ) ;
#231 = ORIENTED_EDGE ( 'NONE', *, *, #270, .F. ) ;
#232 = ORIENTED_EDGE ( 'NONE', *, *, #279, .F. ) ;
#233 = PRESENTATION_LAYER_ASSIGNMENT (  '', '', ( #234 ) ) ;
#234 = STYLED_ITEM ( 'NONE', ( #177 ), #370 ) ;
#235 =( GEOMETRIC_REPRESENTATION_CONTEXT ( 3 ) GLOBAL_UNCERTAINTY_ASSIGNED_CONTEXT ( ( #372 ) ) GLOBAL_UNIT_ASSIGNED_CONTEXT ( ( #349, #325, #352 ) ) REPRESENTATION_CONTEXT ( 'NONE', 'WORKASPACE' ) );
#236 =( GEOMETRIC_REPRESENTATION_CONTEXT ( 3 ) GLOBAL_UNCERTAINTY_ASSIGNED_CONTEXT ( ( #368 ) ) GLOBAL_UNIT_ASSIGNED_CONTEXT ( ( #365, #359, #348 ) ) REPRESENTATION_CONTEXT ( 'NONE', 'WORKASPACE' ) );
#237 = MECHANICAL_DESIGN_GEOMETRIC_PRESENTATION_REPRESENTATION (  '', ( #239 ), #236 ) ;
#238 = PRESENTATION_LAYER_ASSIGNMENT (  '', '', ( #239 ) ) ;
#239 = STYLED_ITEM ( 'NONE', ( #99 ), #371 ) ;
#240 = AXIS2_PLACEMENT_3D ( 'NONE', #338, #328, #350 ) ;
#241 = AXIS2_PLACEMENT_3D ( 'NONE', #300, #320, #323 ) ;
#242 = AXIS2_PLACEMENT_3D ( 'NONE', #357, #364, #355 ) ;
#243 = AXIS2_PLACEMENT_3D ( 'NONE', #301, #306, #302 ) ;
#244 = AXIS2_PLACEMENT_3D ( 'NONE', #321, #313, #366 ) ;
#245 = AXIS2_PLACEMENT_3D ( 'NONE', #305, #315, #339 ) ;
#246 = AXIS2_PLACEMENT_3D ( 'NONE', #333, #307, #314 ) ;
#247 = AXIS2_PLACEMENT_3D ( 'NONE', #342, #356, #343 ) ;
#248 = AXIS2_PLACEMENT_3D ( 'NONE', #324, #331, #341 ) ;
#249 = AXIS2_PLACEMENT_3D ( 'NONE', #329, #347, #340 ) ;
#250 = AXIS2_PLACEMENT_3D ( 'NONE', #317, #304, #318 ) ;
#251 = AXIS2_PLACEMENT_3D ( 'NONE', #309, #310, #303 ) ;
#252 = AXIS2_PLACEMENT_3D ( 'NONE', #53, #52, #83 ) ;
#253 = AXIS2_PLACEMENT_3D ( 'NONE', #57, #74, #42 ) ;
#254 = AXIS2_PLACEMENT_3D ( 'NONE', #30, #91, #89 ) ;
#255 = AXIS2_PLACEMENT_3D ( 'NONE', #69, #59, #51 ) ;
#256 = AXIS2_PLACEMENT_3D ( 'NONE', #85, #35, #66 ) ;
#257 = AXIS2_PLACEMENT_3D ( 'NONE', #60, #22, #21 ) ;
#258 = AXIS2_PLACEMENT_3D ( 'NONE', #84, #39, #80 ) ;
#259 = AXIS2_PLACEMENT_3D ( 'NONE', #37, #64, #88 ) ;
#260 = AXIS2_PLACEMENT_3D ( 'NONE', #79, #49, #73 ) ;
#261 = EDGE_CURVE ( 'NONE', #217, #190, #159, .T. ) ;
#262 = AXIS2_PLACEMENT_3D ( 'NONE', #20, #78, #81 ) ;
#263 = AXIS2_PLACEMENT_3D ( 'NONE', #46, #29, #17 ) ;
#264 = AXIS2_PLACEMENT_3D ( 'NONE', #54, #25, #77 ) ;
#265 = AXIS2_PLACEMENT_3D ( 'NONE', #55, #65, #56 ) ;
#266 = AXIS2_PLACEMENT_3D ( 'NONE', #68, #61, #48 ) ;
#267 = AXIS2_PLACEMENT_3D ( 'NONE', #28, #34, #87 ) ;
#268 = AXIS2_PLACEMENT_3D ( 'NONE', #86, #92, #71 ) ;
#269 = AXIS2_PLACEMENT_3D ( 'NONE', #33, #31, #72 ) ;
#270 = EDGE_CURVE ( 'NONE', #190, #211, #106, .T. ) ;
#271 = EDGE_CURVE ( 'NONE', #139, #182, #142, .T. ) ;
#272 = EDGE_CURVE ( 'NONE', #199, #211, #127, .T. ) ;
#273 = EDGE_CURVE ( 'NONE', #213, #134, #128, .T. ) ;
#274 = EDGE_CURVE ( 'NONE', #217, #199, #121, .T. ) ;
#275 = EDGE_CURVE ( 'NONE', #187, #201, #125, .T. ) ;
#276 = EDGE_CURVE ( 'NONE', #199, #217, #124, .T. ) ;
#277 = EDGE_CURVE ( 'NONE', #230, #187, #122, .T. ) ;
#278 = EDGE_CURVE ( 'NONE', #211, #190, #133, .T. ) ;
#279 = EDGE_CURVE ( 'NONE', #201, #157, #120, .T. ) ;
#280 = EDGE_CURVE ( 'NONE', #134, #199, #118, .T. ) ;
#281 = EDGE_CURVE ( 'NONE', #216, #157, #116, .T. ) ;
#282 = EDGE_CURVE ( 'NONE', #216, #187, #117, .T. ) ;
#283 = EDGE_CURVE ( 'NONE', #134, #213, #112, .T. ) ;
#284 = EDGE_CURVE ( 'NONE', #182, #139, #114, .T. ) ;
#285 = EDGE_CURVE ( 'NONE', #213, #217, #110, .T. ) ;
#286 = EDGE_CURVE ( 'NONE', #230, #162, #109, .T. ) ;
#287 = EDGE_CURVE ( 'NONE', #157, #201, #111, .T. ) ;
#288 = MECHANICAL_DESIGN_GEOMETRIC_PRESENTATION_REPRESENTATION (  '', ( #234 ), #294 ) ;
#289 = EDGE_CURVE ( 'NONE', #211, #182, #105, .T. ) ;
#290 = EDGE_CURVE ( 'NONE', #190, #139, #100, .T. ) ;
#291 = EDGE_CURVE ( 'NONE', #162, #216, #101, .T. ) ;
#292 = EDGE_CURVE ( 'NONE', #162, #230, #102, .T. ) ;
#293 = EDGE_CURVE ( 'NONE', #187, #216, #104, .T. ) ;
#294 =( GEOMETRIC_REPRESENTATION_CONTEXT ( 3 ) GLOBAL_UNCERTAINTY_ASSIGNED_CONTEXT ( ( #369 ) ) GLOBAL_UNIT_ASSIGNED_CONTEXT ( ( #361, #353, #354 ) ) REPRESENTATION_CONTEXT ( 'NONE', 'WORKASPACE' ) );
#295 = AXIS2_PLACEMENT_3D ( 'NONE', #363, #346, #332 ) ;
#296 = PRODUCT_DEFINITION ( 'NON CONOSCIUTO', '', #297, #1 ) ;
#297 = PRODUCT_DEFINITION_FORMATION_WITH_SPECIFIED_SOURCE ( 'TUTTO', '', #3, .NOT_KNOWN. ) ;
#298 = PRODUCT_RELATED_PRODUCT_CATEGORY ( 'part', '', ( #3 ) ) ;
#299 = APPLICATION_PROTOCOL_DEFINITION ( 'draft international standard', 'automotive_design', 1998, #308 ) ;
#300 = CARTESIAN_POINT ( 'NONE',  ( 1.925929944387235900E-031, 0.0000000000000000000, 0.0000000000000000000 ) ) ;
#301 = CARTESIAN_POINT ( 'NONE',  ( -1.750000000000010700, 68.00000000000000000, 0.0000000000000000000 ) ) ;
#302 = DIRECTION ( 'NONE',  ( -1.000000000000000000, 0.0000000000000000000, 0.0000000000000000000 ) ) ;
#303 = DIRECTION ( 'NONE',  ( -1.000000000000000000, 0.0000000000000000000, 0.0000000000000000000 ) ) ;
#304 = DIRECTION ( 'NONE',  ( -1.668003342285391700E-017, 1.000000000000000000, -0.0000000000000000000 ) ) ;
#305 = CARTESIAN_POINT ( 'NONE',  ( 1.925929944387235900E-031, 0.0000000000000000000, 0.0000000000000000000 ) ) ;
#306 = DIRECTION ( 'NONE',  ( 0.0000000000000000000, -0.0000000000000000000, -1.000000000000000000 ) ) ;
#307 = DIRECTION ( 'NONE',  ( -1.668003342285391700E-017, 1.000000000000000000, -0.0000000000000000000 ) ) ;
#308 = APPLICATION_CONTEXT ( 'automotive_design' ) ;
#309 = CARTESIAN_POINT ( 'NONE',  ( -2.001604010742468300E-016, 11.99999999999999600, 0.0000000000000000000 ) ) ;
#310 = DIRECTION ( 'NONE',  ( -1.668003342285391700E-017, 1.000000000000000000, -0.0000000000000000000 ) ) ;
#311 = DIRECTION ( 'NONE',  ( -0.7071067811865463500, 0.7071067811865487900, 0.0000000000000000000 ) ) ;
#312 = CARTESIAN_POINT ( 'NONE',  ( 10.75000000000001100, 10.99999999999999600, 1.316495309083406000E-015 ) ) ;
#313 = DIRECTION ( 'NONE',  ( -1.668003342285391700E-017, 1.000000000000000000, -0.0000000000000000000 ) ) ;
#314 = DIRECTION ( 'NONE',  ( -1.000000000000000000, 0.0000000000000000000, 0.0000000000000000000 ) ) ;
#315 = DIRECTION ( 'NONE',  ( -1.668003342285391700E-017, 1.000000000000000000, -0.0000000000000000000 ) ) ;
#316 = CARTESIAN_POINT ( 'NONE',  ( -10.75000000000001100, 10.99999999999999600, 0.0000000000000000000 ) ) ;
#317 = CARTESIAN_POINT ( 'NONE',  ( -1.134242272754066100E-015, 68.00000000000000000, 0.0000000000000000000 ) ) ;
#318 = DIRECTION ( 'NONE',  ( -1.000000000000000000, 0.0000000000000000000, 0.0000000000000000000 ) ) ;
#319 = DIRECTION ( 'NONE',  ( 0.7071067811865463500, 0.7071067811865487900, 8.659560562354918100E-017 ) ) ;
#320 = DIRECTION ( 'NONE',  ( -1.668003342285391700E-017, 1.000000000000000000, -0.0000000000000000000 ) ) ;
#321 = CARTESIAN_POINT ( 'NONE',  ( -1.834803676513927900E-016, 10.99999999999999600, 0.0000000000000000000 ) ) ;
#322 = FILL_AREA_STYLE ('',( #345 ) ) ;
#323 = DIRECTION ( 'NONE',  ( -1.000000000000000000, -1.668003342285391700E-017, 0.0000000000000000000 ) ) ;
#324 = CARTESIAN_POINT ( 'NONE',  ( -2.001604010742462600E-017, 1.200000000000006600, 0.0000000000000000000 ) ) ;
#325 =( NAMED_UNIT ( * ) PLANE_ANGLE_UNIT ( ) SI_UNIT ( $, .RADIAN. ) );
#326 = APPLICATION_PROTOCOL_DEFINITION ( 'draft international standard', 'automotive_design', 1998, #362 ) ;
#327 = DIRECTION ( 'NONE',  ( -1.668003342285391700E-017, 1.000000000000000000, -0.0000000000000000000 ) ) ;
#328 = DIRECTION ( 'NONE',  ( -1.668003342285391700E-017, 1.000000000000000000, -0.0000000000000000000 ) ) ;
#329 = CARTESIAN_POINT ( 'NONE',  ( -1.834803676513927900E-016, 10.99999999999999600, 0.0000000000000000000 ) ) ;
#330 = SURFACE_SIDE_STYLE ('',( #136 ) ) ;
#331 = DIRECTION ( 'NONE',  ( -1.668003342285391700E-017, 1.000000000000000000, -0.0000000000000000000 ) ) ;
#332 = DIRECTION ( 'NONE',  ( 1.000000000000000000, 0.0000000000000000000, 0.0000000000000000000 ) ) ;
#333 = CARTESIAN_POINT ( 'NONE',  ( -1.301042606982605300E-015, 78.00000000000000000, 0.0000000000000000000 ) ) ;
#334 = PRODUCT_CONTEXT ( 'NONE', #308, 'mechanical' ) ;
#335 = CARTESIAN_POINT ( 'NONE',  ( 7.050000000000014000, 1.175942356311203600E-016, 8.633759933988857700E-016 ) ) ;
#336 = CARTESIAN_POINT ( 'NONE',  ( 8.250000000000007100, 78.00000000000000000, 1.010333609296567300E-015 ) ) ;
#337 = DIRECTION ( 'NONE',  ( 0.7071067811865441300, 0.7071067811865507900, 8.659560562354892200E-017 ) ) ;
#338 = CARTESIAN_POINT ( 'NONE',  ( -2.001604010742462600E-017, 1.200000000000006600, 0.0000000000000000000 ) ) ;
#339 = DIRECTION ( 'NONE',  ( -1.000000000000000000, -1.668003342285391700E-017, 0.0000000000000000000 ) ) ;
#340 = DIRECTION ( 'NONE',  ( -1.000000000000000000, 0.0000000000000000000, 0.0000000000000000000 ) ) ;
#341 = DIRECTION ( 'NONE',  ( -1.000000000000000000, -2.628368902995159300E-017, 0.0000000000000000000 ) ) ;
#342 = CARTESIAN_POINT ( 'NONE',  ( -1.834803676513927900E-016, 10.99999999999999600, 0.0000000000000000000 ) ) ;
#343 = DIRECTION ( 'NONE',  ( -1.000000000000000000, 0.0000000000000000000, 0.0000000000000000000 ) ) ;
#344 = FILL_AREA_STYLE ('',( #367 ) ) ;
#345 = FILL_AREA_STYLE_COLOUR ( '', #107 ) ;
#346 = DIRECTION ( 'NONE',  ( 0.0000000000000000000, 0.0000000000000000000, 1.000000000000000000 ) ) ;
#347 = DIRECTION ( 'NONE',  ( -1.668003342285391700E-017, 1.000000000000000000, -0.0000000000000000000 ) ) ;
#348 =( NAMED_UNIT ( * ) SI_UNIT ( $, .STERADIAN. ) SOLID_ANGLE_UNIT ( ) );
#349 =( LENGTH_UNIT ( ) NAMED_UNIT ( * ) SI_UNIT ( .MILLI., .METRE. ) );
#350 = DIRECTION ( 'NONE',  ( -1.000000000000000000, -2.628368902995159300E-017, 0.0000000000000000000 ) ) ;
#351 = SURFACE_SIDE_STYLE ('',( #98 ) ) ;
#352 =( NAMED_UNIT ( * ) SI_UNIT ( $, .STERADIAN. ) SOLID_ANGLE_UNIT ( ) );
#353 =( NAMED_UNIT ( * ) PLANE_ANGLE_UNIT ( ) SI_UNIT ( $, .RADIAN. ) );
#354 =( NAMED_UNIT ( * ) SI_UNIT ( $, .STERADIAN. ) SOLID_ANGLE_UNIT ( ) );
#355 = DIRECTION ( 'NONE',  ( 1.000000000000000000, 0.0000000000000000000, 1.224646799147353500E-016 ) ) ;
#356 = DIRECTION ( 'NONE',  ( -1.668003342285391700E-017, 1.000000000000000000, -0.0000000000000000000 ) ) ;
#357 = CARTESIAN_POINT ( 'NONE',  ( 1.750000000000008400, 68.00000000000000000, 2.143131898507879600E-016 ) ) ;
#358 = SURFACE_STYLE_USAGE ( .BOTH. , #330 ) ;
#359 =( NAMED_UNIT ( * ) PLANE_ANGLE_UNIT ( ) SI_UNIT ( $, .RADIAN. ) );
#360 = SURFACE_STYLE_USAGE ( .BOTH. , #351 ) ;
#361 =( LENGTH_UNIT ( ) NAMED_UNIT ( * ) SI_UNIT ( .MILLI., .METRE. ) );
#362 = APPLICATION_CONTEXT ( 'automotive_design' ) ;
#363 = CARTESIAN_POINT ( 'NONE',  ( 0.0000000000000000000, 0.0000000000000000000, 0.0000000000000000000 ) ) ;
#364 = DIRECTION ( 'NONE',  ( -1.224646799147353200E-016, -2.042714954096891800E-033, 1.000000000000000000 ) ) ;
#365 =( LENGTH_UNIT ( ) NAMED_UNIT ( * ) SI_UNIT ( .MILLI., .METRE. ) );
#366 = DIRECTION ( 'NONE',  ( -1.000000000000000000, 0.0000000000000000000, 0.0000000000000000000 ) ) ;
#367 = FILL_AREA_STYLE_COLOUR ( '', #96 ) ;
#368 = UNCERTAINTY_MEASURE_WITH_UNIT (LENGTH_MEASURE( 1.000000000000000100E-005 ), #365, 'distance_accuracy_value', 'NONE');
#369 = UNCERTAINTY_MEASURE_WITH_UNIT (LENGTH_MEASURE( 1.000000000000000100E-005 ), #361, 'distance_accuracy_value', 'NONE');
#370 = ADVANCED_BREP_SHAPE_REPRESENTATION ( '0710000005A', ( #371, #295 ), #235 ) ;
#371 = MANIFOLD_SOLID_BREP ( 'Rivoluzione1', #228 ) ;
#372 = UNCERTAINTY_MEASURE_WITH_UNIT (LENGTH_MEASURE( 1.000000000000000100E-005 ), #349, 'distance_accuracy_value', 'NONE');
ENDSEC;
END-ISO-10303-21;
