ISO-10303-21;
HEADER;
FILE_DESCRIPTION(( 'MV.11SP00.01.STEP' ), '1');
FILE_NAME( 'MV.11SP00.01.STEP', '2021-02-22T13:53:17',( 'Sopra'),('sopra-pneumatic.com'), 'SwSTEP 2.0','SolidWorks 2009','' );
FILE_SCHEMA (( 'AUTOMOTIVE_DESIGN' ));
ENDSEC;

DATA;
#1 = FILL_AREA_STYLE_COLOUR ( '', #333 ) ;
#2 =( LENGTH_UNIT ( ) NAMED_UNIT ( * ) SI_UNIT ( .MILLI., .METRE. ) );
#3 =( NAMED_UNIT ( * ) PLANE_ANGLE_UNIT ( ) SI_UNIT ( $, .RADIAN. ) );
#4 = SURFACE_SIDE_STYLE ('',( #354 ) ) ;
#5 = DIRECTION ( 'NONE',  ( 1.000000000000000000, 0.0000000000000000000, 0.0000000000000000000 ) ) ;
#6 = SURFACE_STYLE_USAGE ( .BOTH. , #4 ) ;
#7 = APPLICATION_PROTOCOL_DEFINITION ( 'draft international standard', 'automotive_design', 1998, #9 ) ;
#8 =( NAMED_UNIT ( * ) SI_UNIT ( $, .STERADIAN. ) SOLID_ANGLE_UNIT ( ) );
#9 = APPLICATION_CONTEXT ( 'automotive_design' ) ;
#10 = DIRECTION ( 'NONE',  ( 0.0000000000000000000, 0.0000000000000000000, 1.000000000000000000 ) ) ;
#11 = PRODUCT_CONTEXT ( 'NONE', #116, 'mechanical' ) ;
#12 = FILL_AREA_STYLE ('',( #1 ) ) ;
#13 = UNCERTAINTY_MEASURE_WITH_UNIT (LENGTH_MEASURE( 1.000000000000000100E-005 ), #113, 'distance_accuracy_value', 'NONE');
#14 = UNCERTAINTY_MEASURE_WITH_UNIT (LENGTH_MEASURE( 1.000000000000000100E-005 ), #124, 'distance_accuracy_value', 'NONE');
#15 = MANIFOLD_SOLID_BREP ( 'Rivoluzione1', #301 ) ;
#16 = UNCERTAINTY_MEASURE_WITH_UNIT (LENGTH_MEASURE( 1.000000000000000100E-005 ), #2, 'distance_accuracy_value', 'NONE');
#17 = ADVANCED_BREP_SHAPE_REPRESENTATION ( '0710000007A', ( #15, #174 ), #167 ) ;
#18 = CARTESIAN_POINT ( 'NONE',  ( 2.087936214981850300E-016, 136.0000000000000000, 0.0000000000000000000 ) ) ;
#19 = DIRECTION ( 'NONE',  ( -1.000000000000000000, 1.535247216898419400E-018, 0.0000000000000000000 ) ) ;
#20 = DIRECTION ( 'NONE',  ( -1.000000000000000000, 1.535247216898419600E-018, 0.0000000000000000000 ) ) ;
#21 = CARTESIAN_POINT ( 'NONE',  ( 0.5000000000000148800, 160.0000000000000000, 0.0000000000000000000 ) ) ;
#22 = CARTESIAN_POINT ( 'NONE',  ( -22.00000000000002800, 19.49999999999998900, 0.0000000000000000000 ) ) ;
#23 = CARTESIAN_POINT ( 'NONE',  ( -0.5000000000000173200, 136.0000000000000000, 0.0000000000000000000 ) ) ;
#24 = APPLICATION_PROTOCOL_DEFINITION ( 'draft international standard', 'automotive_design', 1998, #116 ) ;
#25 = CARTESIAN_POINT ( 'NONE',  ( 2.456395547037471000E-016, 160.0000000000000000, 0.0000000000000000000 ) ) ;
#26 = SURFACE_STYLE_USAGE ( .BOTH. , #52 ) ;
#27 = DIRECTION ( 'NONE',  ( 1.535247216898419400E-018, 1.000000000000000000, -0.0000000000000000000 ) ) ;
#28 = CARTESIAN_POINT ( 'NONE',  ( 15.25000000000002500, -2.341252005770093500E-017, 1.928818708657084100E-015 ) ) ;
#29 = DIRECTION ( 'NONE',  ( -1.000000000000000000, 1.535247216898419400E-018, 0.0000000000000000000 ) ) ;
#30 = DIRECTION ( 'NONE',  ( 1.535247216898419400E-018, 1.000000000000000000, -0.0000000000000000000 ) ) ;
#31 = DIRECTION ( 'NONE',  ( -1.000000000000000000, 0.0000000000000000000, 0.0000000000000000000 ) ) ;
#32 = CARTESIAN_POINT ( 'NONE',  ( 16.25000000000002100, 19.49999999999998900, 1.990051048614451700E-015 ) ) ;
#33 = CARTESIAN_POINT ( 'NONE',  ( 2.993732072951915300E-017, 19.49999999999998900, 0.0000000000000000000 ) ) ;
#34 = DIRECTION ( 'NONE',  ( 1.000000000000000000, 0.0000000000000000000, 1.224646799147353200E-016 ) ) ;
#35 = CARTESIAN_POINT ( 'NONE',  ( 0.5000000000000177600, 136.0000000000000000, 6.123233995736981700E-017 ) ) ;
#36 = DIRECTION ( 'NONE',  ( -1.000000000000000000, 0.0000000000000000000, 0.0000000000000000000 ) ) ;
#37 = DIRECTION ( 'NONE',  ( 1.535247216898419400E-018, 1.000000000000000000, -0.0000000000000000000 ) ) ;
#38 = DIRECTION ( 'NONE',  ( 0.7071067811865432400, 0.7071067811865517900, 8.659560562354881100E-017 ) ) ;
#39 = CARTESIAN_POINT ( 'NONE',  ( 2.456395547037471000E-016, 160.0000000000000000, 0.0000000000000000000 ) ) ;
#40 = CARTESIAN_POINT ( 'NONE',  ( -24.50000000000001800, 21.99999999999999300, 0.0000000000000000000 ) ) ;
#41 = DIRECTION ( 'NONE',  ( -1.000000000000000000, 0.0000000000000000000, 0.0000000000000000000 ) ) ;
#42 = CARTESIAN_POINT ( 'NONE',  ( 2.993732072951915300E-017, 19.49999999999998900, 0.0000000000000000000 ) ) ;
#43 = CARTESIAN_POINT ( 'NONE',  ( -24.50000000000001800, 160.0000000000000000, 0.0000000000000000000 ) ) ;
#44 = DIRECTION ( 'NONE',  ( 1.535247216898419400E-018, 1.000000000000000000, -0.0000000000000000000 ) ) ;
#45 = DIRECTION ( 'NONE',  ( -1.000000000000000000, 0.0000000000000000000, 0.0000000000000000000 ) ) ;
#46 = CARTESIAN_POINT ( 'NONE',  ( 2.168404344971008900E-016, 136.0000000000000000, 0.0000000000000000000 ) ) ;
#47 = DIRECTION ( 'NONE',  ( 1.535247216898419400E-018, 1.000000000000000000, -0.0000000000000000000 ) ) ;
#48 = CARTESIAN_POINT ( 'NONE',  ( 22.00000000000002800, 19.49999999999998900, 2.847303808017599300E-015 ) ) ;
#49 = DIRECTION ( 'NONE',  ( 1.535247216898419400E-018, 1.000000000000000000, -0.0000000000000000000 ) ) ;
#50 = CARTESIAN_POINT ( 'NONE',  ( 2.993732072951915300E-017, 19.49999999999998900, 0.0000000000000000000 ) ) ;
#51 =( NAMED_UNIT ( * ) SI_UNIT ( $, .STERADIAN. ) SOLID_ANGLE_UNIT ( ) );
#52 = SURFACE_SIDE_STYLE ('',( #285 ) ) ;
#53 = CARTESIAN_POINT ( 'NONE',  ( 15.25000000000002500, -2.341252005770093500E-017, 1.867586368699716900E-015 ) ) ;
#54 = DIRECTION ( 'NONE',  ( 1.535247216898419400E-018, 1.000000000000000000, -0.0000000000000000000 ) ) ;
#55 = CARTESIAN_POINT ( 'NONE',  ( -24.50000000000001800, 136.0000000000000000, 0.0000000000000000000 ) ) ;
#56 = CARTESIAN_POINT ( 'NONE',  ( 24.50000000000001800, 160.0000000000000000, 3.000384657911017400E-015 ) ) ;
#57 = DIRECTION ( 'NONE',  ( 1.535247216898419400E-018, 1.000000000000000000, -0.0000000000000000000 ) ) ;
#58 = DIRECTION ( 'NONE',  ( 1.535247216898419400E-018, 1.000000000000000000, -0.0000000000000000000 ) ) ;
#59 = CARTESIAN_POINT ( 'NONE',  ( 2.456395547037471000E-016, 160.0000000000000000, 0.0000000000000000000 ) ) ;
#60 = CARTESIAN_POINT ( 'NONE',  ( -15.25000000000002500, 2.341252005770093500E-017, 0.0000000000000000000 ) ) ;
#61 = DIRECTION ( 'NONE',  ( -1.000000000000000000, 0.0000000000000000000, 0.0000000000000000000 ) ) ;
#62 = CARTESIAN_POINT ( 'NONE',  ( -16.25000000000001800, 160.0000000000000000, 0.0000000000000000000 ) ) ;
#63 = CARTESIAN_POINT ( 'NONE',  ( 0.0000000000000000000, 0.0000000000000000000, 0.0000000000000000000 ) ) ;
#64 =( NAMED_UNIT ( * ) SI_UNIT ( $, .STERADIAN. ) SOLID_ANGLE_UNIT ( ) );
#65 = CARTESIAN_POINT ( 'NONE',  ( 16.25000000000002100, 19.50000000000000000, 0.0000000000000000000 ) ) ;
#66 = DIRECTION ( 'NONE',  ( -1.000000000000000000, 0.0000000000000000000, 0.0000000000000000000 ) ) ;
#67 = DIRECTION ( 'NONE',  ( -1.224646799147353200E-016, 1.880135590074531600E-034, 1.000000000000000000 ) ) ;
#68 = DIRECTION ( 'NONE',  ( 1.535247216898419400E-018, 1.000000000000000000, -0.0000000000000000000 ) ) ;
#69 = DIRECTION ( 'NONE',  ( 1.535247216898419400E-018, 1.000000000000000000, -0.0000000000000000000 ) ) ;
#70 = DIRECTION ( 'NONE',  ( 1.535247216898419400E-018, 1.000000000000000000, -0.0000000000000000000 ) ) ;
#71 = CARTESIAN_POINT ( 'NONE',  ( 1.535247216898419400E-018, 1.000000000000000900, 0.0000000000000000000 ) ) ;
#72 = DIRECTION ( 'NONE',  ( -1.000000000000000000, 1.535247216898419600E-018, 0.0000000000000000000 ) ) ;
#73 = CARTESIAN_POINT ( 'NONE',  ( 0.5000000000000138800, 160.0000000000000000, 1.530808498934193300E-015 ) ) ;
#74 = CARTESIAN_POINT ( 'NONE',  ( 0.0000000000000000000, 0.0000000000000000000, 0.0000000000000000000 ) ) ;
#75 = DIRECTION ( 'NONE',  ( -1.535247216898419400E-018, -1.000000000000000000, 0.0000000000000000000 ) ) ;
#76 =( NAMED_UNIT ( * ) PLANE_ANGLE_UNIT ( ) SI_UNIT ( $, .RADIAN. ) );
#77 = DIRECTION ( 'NONE',  ( -1.000000000000000000, 0.0000000000000000000, 0.0000000000000000000 ) ) ;
#78 = DIRECTION ( 'NONE',  ( 1.535247216898419400E-018, 1.000000000000000000, -0.0000000000000000000 ) ) ;
#79 = DIRECTION ( 'NONE',  ( -1.000000000000000000, 1.535247216898419600E-018, 0.0000000000000000000 ) ) ;
#80 = DIRECTION ( 'NONE',  ( -0.7071067811865432400, 0.7071067811865517900, 0.0000000000000000000 ) ) ;
#81 = PLANE ( 'NONE',  #160 ) ;
#82 = CARTESIAN_POINT ( 'NONE',  ( 0.0000000000000000000, 0.0000000000000000000, 0.0000000000000000000 ) ) ;
#83 = DIRECTION ( 'NONE',  ( 1.535247216898419400E-018, 1.000000000000000000, -0.0000000000000000000 ) ) ;
#84 = FILL_AREA_STYLE_COLOUR ( '', #334 ) ;
#85 = CARTESIAN_POINT ( 'NONE',  ( 24.50000000000001800, 136.0000000000000000, 3.000384657911017400E-015 ) ) ;
#86 = DIRECTION ( 'NONE',  ( -1.000000000000000000, 0.0000000000000000000, 0.0000000000000000000 ) ) ;
#87 = CARTESIAN_POINT ( 'NONE',  ( 1.535247216898419400E-018, 1.000000000000000900, 0.0000000000000000000 ) ) ;
#88 = PLANE ( 'NONE',  #166 ) ;
#89 = DIRECTION ( 'NONE',  ( 1.535247216898419400E-018, 1.000000000000000000, -0.0000000000000000000 ) ) ;
#90 = CARTESIAN_POINT ( 'NONE',  ( 1.797200312958189200E-035, 1.170626002885046800E-017, 0.0000000000000000000 ) ) ;
#91 = CARTESIAN_POINT ( 'NONE',  ( 24.50000000000001800, 21.99999999999999300, 3.000384657911017400E-015 ) ) ;
#92 = DIRECTION ( 'NONE',  ( -0.0000000000000000000, 0.0000000000000000000, -1.000000000000000000 ) ) ;
#93 = DIRECTION ( 'NONE',  ( -1.000000000000000000, 0.0000000000000000000, 0.0000000000000000000 ) ) ;
#94 = DIRECTION ( 'NONE',  ( 1.535247216898419400E-018, 1.000000000000000000, -0.0000000000000000000 ) ) ;
#95 = DIRECTION ( 'NONE',  ( 1.535247216898419400E-018, 1.000000000000000000, -0.0000000000000000000 ) ) ;
#96 = DIRECTION ( 'NONE',  ( -1.000000000000000000, 0.0000000000000000000, 0.0000000000000000000 ) ) ;
#97 = CARTESIAN_POINT ( 'NONE',  ( 2.993732072951915300E-017, 19.49999999999998900, 0.0000000000000000000 ) ) ;
#98 = DIRECTION ( 'NONE',  ( -1.000000000000000000, 0.0000000000000000000, 0.0000000000000000000 ) ) ;
#99 = DIRECTION ( 'NONE',  ( -1.000000000000000000, 0.0000000000000000000, 0.0000000000000000000 ) ) ;
#100 = DIRECTION ( 'NONE',  ( -1.000000000000000000, 0.0000000000000000000, 0.0000000000000000000 ) ) ;
#101 = CARTESIAN_POINT ( 'NONE',  ( 3.377543877176520100E-017, 21.99999999999999300, 0.0000000000000000000 ) ) ;
#102 = PLANE ( 'NONE',  #159 ) ;
#103 =( NAMED_UNIT ( * ) PLANE_ANGLE_UNIT ( ) SI_UNIT ( $, .RADIAN. ) );
#104 = CARTESIAN_POINT ( 'NONE',  ( 22.00000000000002800, 19.49999999999998900, 2.694222958124180800E-015 ) ) ;
#105 = DIRECTION ( 'NONE',  ( 1.000000000000000000, -1.535247216898419400E-018, 0.0000000000000000000 ) ) ;
#106 = CARTESIAN_POINT ( 'NONE',  ( -0.5000000000000134300, 160.0000000000000000, 0.0000000000000000000 ) ) ;
#107 = DIRECTION ( 'NONE',  ( -0.7071067811865455700, 0.7071067811865493500, 0.0000000000000000000 ) ) ;
#108 = FILL_AREA_STYLE ('',( #84 ) ) ;
#109 = DIRECTION ( 'NONE',  ( 1.535247216898419400E-018, 1.000000000000000000, -0.0000000000000000000 ) ) ;
#110 = CARTESIAN_POINT ( 'NONE',  ( -15.25000000000002500, 2.341252005770093500E-017, 0.0000000000000000000 ) ) ;
#111 = CARTESIAN_POINT ( 'NONE',  ( -16.25000000000002100, 19.49999999999998900, 0.0000000000000000000 ) ) ;
#112 = CARTESIAN_POINT ( 'NONE',  ( 3.377543877176520100E-017, 21.99999999999999300, 0.0000000000000000000 ) ) ;
#113 =( LENGTH_UNIT ( ) NAMED_UNIT ( * ) SI_UNIT ( .MILLI., .METRE. ) );
#114 = DIRECTION ( 'NONE',  ( 1.535247216898419400E-018, 1.000000000000000000, -0.0000000000000000000 ) ) ;
#115 = CARTESIAN_POINT ( 'NONE',  ( 2.087936214981850300E-016, 136.0000000000000000, 0.0000000000000000000 ) ) ;
#116 = APPLICATION_CONTEXT ( 'automotive_design' ) ;
#117 = DIRECTION ( 'NONE',  ( 1.535247216898419400E-018, 1.000000000000000000, -0.0000000000000000000 ) ) ;
#118 = DIRECTION ( 'NONE',  ( -1.000000000000000000, 0.0000000000000000000, 0.0000000000000000000 ) ) ;
#119 = DIRECTION ( 'NONE',  ( -1.000000000000000000, 0.0000000000000000000, 0.0000000000000000000 ) ) ;
#120 = DIRECTION ( 'NONE',  ( 1.535247216898419400E-018, 1.000000000000000000, -0.0000000000000000000 ) ) ;
#121 = DIRECTION ( 'NONE',  ( 1.535247216898419400E-018, 1.000000000000000000, -0.0000000000000000000 ) ) ;
#122 = DIRECTION ( 'NONE',  ( 0.7071067811865455700, 0.7071067811865493500, 8.659560562354908200E-017 ) ) ;
#123 = CARTESIAN_POINT ( 'NONE',  ( 16.25000000000001800, 160.0000000000000000, 1.990051048614451300E-015 ) ) ;
#124 =( LENGTH_UNIT ( ) NAMED_UNIT ( * ) SI_UNIT ( .MILLI., .METRE. ) );
#125 = CARTESIAN_POINT ( 'NONE',  ( 2.456395547037471000E-016, 160.0000000000000000, 0.0000000000000000000 ) ) ;
#126 = DIRECTION ( 'NONE',  ( 1.535247216898419400E-018, 1.000000000000000000, -0.0000000000000000000 ) ) ;
#127 = CARTESIAN_POINT ( 'NONE',  ( 2.993732072951915300E-017, 19.49999999999998900, 0.0000000000000000000 ) ) ;
#128 = CARTESIAN_POINT ( 'NONE',  ( -22.00000000000002800, 19.49999999999998900, 0.0000000000000000000 ) ) ;
#129 = DIRECTION ( 'NONE',  ( -1.000000000000000000, 1.535247216898419400E-018, 0.0000000000000000000 ) ) ;
#130 = CARTESIAN_POINT ( 'NONE',  ( 16.25000000000001400, 1.000000000000000900, 1.990051048614450900E-015 ) ) ;
#131 = CARTESIAN_POINT ( 'NONE',  ( 2.993732072951915300E-017, 19.49999999999998900, 0.0000000000000000000 ) ) ;
#132 = CARTESIAN_POINT ( 'NONE',  ( 0.0000000000000000000, 0.0000000000000000000, 0.0000000000000000000 ) ) ;
#133 = DIRECTION ( 'NONE',  ( -1.000000000000000000, 1.535247216898419600E-018, 0.0000000000000000000 ) ) ;
#134 = CARTESIAN_POINT ( 'NONE',  ( 2.168404344971008900E-016, 136.0000000000000000, 0.0000000000000000000 ) ) ;
#135 = CARTESIAN_POINT ( 'NONE',  ( 0.0000000000000000000, 0.0000000000000000000, 0.0000000000000000000 ) ) ;
#136 = DIRECTION ( 'NONE',  ( 1.535247216898419400E-018, 1.000000000000000000, -0.0000000000000000000 ) ) ;
#137 = DIRECTION ( 'NONE',  ( 1.535247216898419400E-018, 1.000000000000000000, -0.0000000000000000000 ) ) ;
#138 = DIRECTION ( 'NONE',  ( 1.535247216898419400E-018, 1.000000000000000000, -0.0000000000000000000 ) ) ;
#139 = CARTESIAN_POINT ( 'NONE',  ( 2.456395547037471000E-016, 160.0000000000000000, 0.0000000000000000000 ) ) ;
#140 = DIRECTION ( 'NONE',  ( 1.535247216898419400E-018, 1.000000000000000000, -0.0000000000000000000 ) ) ;
#141 = CARTESIAN_POINT ( 'NONE',  ( 2.456395547037471000E-016, 160.0000000000000000, 0.0000000000000000000 ) ) ;
#142 = DIRECTION ( 'NONE',  ( -1.000000000000000000, 0.0000000000000000000, 0.0000000000000000000 ) ) ;
#143 = DIRECTION ( 'NONE',  ( -1.000000000000000000, 0.0000000000000000000, 0.0000000000000000000 ) ) ;
#144 = DIRECTION ( 'NONE',  ( -1.000000000000000000, 0.0000000000000000000, 0.0000000000000000000 ) ) ;
#145 = DIRECTION ( 'NONE',  ( -1.000000000000000000, 1.535247216898419400E-018, 0.0000000000000000000 ) ) ;
#146 = DIRECTION ( 'NONE',  ( -1.000000000000000000, 0.0000000000000000000, 0.0000000000000000000 ) ) ;
#147 = DIRECTION ( 'NONE',  ( 1.535247216898419400E-018, 1.000000000000000000, -0.0000000000000000000 ) ) ;
#148 = DIRECTION ( 'NONE',  ( 1.535247216898419400E-018, 1.000000000000000000, -0.0000000000000000000 ) ) ;
#149 = DIRECTION ( 'NONE',  ( 1.535247216898419400E-018, 1.000000000000000000, -0.0000000000000000000 ) ) ;
#150 = CARTESIAN_POINT ( 'NONE',  ( -16.25000000000001400, 1.000000000000000900, 0.0000000000000000000 ) ) ;
#151 = AXIS2_PLACEMENT_3D ( 'NONE', #18, #27, #99 ) ;
#152 = AXIS2_PLACEMENT_3D ( 'NONE', #71, #148, #98 ) ;
#153 = AXIS2_PLACEMENT_3D ( 'NONE', #132, #114, #79 ) ;
#154 = AXIS2_PLACEMENT_3D ( 'NONE', #125, #49, #144 ) ;
#155 = AXIS2_PLACEMENT_3D ( 'NONE', #115, #126, #31 ) ;
#156 = AXIS2_PLACEMENT_3D ( 'NONE', #63, #117, #72 ) ;
#157 = AXIS2_PLACEMENT_3D ( 'NONE', #97, #89, #143 ) ;
#158 = AXIS2_PLACEMENT_3D ( 'NONE', #35, #67, #34 ) ;
#159 = AXIS2_PLACEMENT_3D ( 'NONE', #90, #47, #145 ) ;
#160 = AXIS2_PLACEMENT_3D ( 'NONE', #65, #138, #29 ) ;
#161 = PRODUCT_RELATED_PRODUCT_CATEGORY ( 'part', '', ( #217 ) ) ;
#162 = AXIS2_PLACEMENT_3D ( 'NONE', #141, #37, #119 ) ;
#163 = AXIS2_PLACEMENT_3D ( 'NONE', #82, #78, #20 ) ;
#164 = AXIS2_PLACEMENT_3D ( 'NONE', #25, #95, #61 ) ;
#165 = AXIS2_PLACEMENT_3D ( 'NONE', #134, #120, #19 ) ;
#166 = AXIS2_PLACEMENT_3D ( 'NONE', #21, #75, #105 ) ;
#167 =( GEOMETRIC_REPRESENTATION_CONTEXT ( 3 ) GLOBAL_UNCERTAINTY_ASSIGNED_CONTEXT ( ( #14 ) ) GLOBAL_UNIT_ASSIGNED_CONTEXT ( ( #124, #103, #64 ) ) REPRESENTATION_CONTEXT ( 'NONE', 'WORKASPACE' ) );
#168 = PRODUCT_DEFINITION_FORMATION_WITH_SPECIFIED_SOURCE ( 'TUTTO', '', #217, .NOT_KNOWN. ) ;
#169 = STYLED_ITEM ( 'NONE', ( #326 ), #17 ) ;
#170 = PRESENTATION_LAYER_ASSIGNMENT (  '', '', ( #169 ) ) ;
#171 = MECHANICAL_DESIGN_GEOMETRIC_PRESENTATION_REPRESENTATION (  '', ( #169 ), #172 ) ;
#172 =( GEOMETRIC_REPRESENTATION_CONTEXT ( 3 ) GLOBAL_UNCERTAINTY_ASSIGNED_CONTEXT ( ( #16 ) ) GLOBAL_UNIT_ASSIGNED_CONTEXT ( ( #2, #3, #8 ) ) REPRESENTATION_CONTEXT ( 'NONE', 'WORKASPACE' ) );
#173 = PRODUCT_DEFINITION ( 'NON CONOSCIUTO', '', #168, #358 ) ;
#174 = AXIS2_PLACEMENT_3D ( 'NONE', #74, #10, #5 ) ;
#175 = EDGE_CURVE ( 'NONE', #289, #293, #261, .T. ) ;
#176 = AXIS2_PLACEMENT_3D ( 'NONE', #59, #149, #146 ) ;
#177 = AXIS2_PLACEMENT_3D ( 'NONE', #139, #54, #41 ) ;
#178 = AXIS2_PLACEMENT_3D ( 'NONE', #135, #94, #133 ) ;
#179 = AXIS2_PLACEMENT_3D ( 'NONE', #101, #44, #66 ) ;
#180 = AXIS2_PLACEMENT_3D ( 'NONE', #50, #68, #77 ) ;
#181 = MECHANICAL_DESIGN_GEOMETRIC_PRESENTATION_REPRESENTATION (  '', ( #215 ), #182 ) ;
#182 =( GEOMETRIC_REPRESENTATION_CONTEXT ( 3 ) GLOBAL_UNCERTAINTY_ASSIGNED_CONTEXT ( ( #13 ) ) GLOBAL_UNIT_ASSIGNED_CONTEXT ( ( #113, #76, #51 ) ) REPRESENTATION_CONTEXT ( 'NONE', 'WORKASPACE' ) );
#183 = AXIS2_PLACEMENT_3D ( 'NONE', #87, #69, #100 ) ;
#184 = PRESENTATION_LAYER_ASSIGNMENT (  '', '', ( #215 ) ) ;
#185 = AXIS2_PLACEMENT_3D ( 'NONE', #127, #83, #96 ) ;
#186 = AXIS2_PLACEMENT_3D ( 'NONE', #46, #30, #129 ) ;
#187 = AXIS2_PLACEMENT_3D ( 'NONE', #23, #92, #142 ) ;
#188 = AXIS2_PLACEMENT_3D ( 'NONE', #33, #109, #36 ) ;
#189 = EDGE_CURVE ( 'NONE', #227, #313, #278, .T. ) ;
#190 = EDGE_CURVE ( 'NONE', #291, #265, #260, .T. ) ;
#191 = EDGE_CURVE ( 'NONE', #284, #265, #259, .T. ) ;
#192 = EDGE_CURVE ( 'NONE', #296, #295, #279, .T. ) ;
#193 = EDGE_CURVE ( 'NONE', #265, #291, #257, .T. ) ;
#194 = EDGE_CURVE ( 'NONE', #227, #289, #254, .T. ) ;
#195 = EDGE_CURVE ( 'NONE', #293, #289, #258, .T. ) ;
#196 = EDGE_CURVE ( 'NONE', #245, #295, #255, .T. ) ;
#197 = EDGE_CURVE ( 'NONE', #289, #284, #280, .T. ) ;
#198 = EDGE_CURVE ( 'NONE', #250, #245, #310, .T. ) ;
#199 = EDGE_CURVE ( 'NONE', #295, #245, #252, .T. ) ;
#200 = EDGE_CURVE ( 'NONE', #293, #312, #322, .T. ) ;
#201 = EDGE_CURVE ( 'NONE', #296, #250, #311, .T. ) ;
#202 = EDGE_CURVE ( 'NONE', #228, #244, #282, .T. ) ;
#203 = EDGE_CURVE ( 'NONE', #312, #284, #264, .T. ) ;
#204 = EDGE_CURVE ( 'NONE', #313, #293, #350, .T. ) ;
#205 = EDGE_CURVE ( 'NONE', #244, #250, #294, .T. ) ;
#206 = EDGE_CURVE ( 'NONE', #250, #296, #269, .T. ) ;
#207 = EDGE_CURVE ( 'NONE', #244, #228, #267, .T. ) ;
#208 = EDGE_CURVE ( 'NONE', #284, #312, #320, .T. ) ;
#209 = EDGE_CURVE ( 'NONE', #228, #296, #283, .T. ) ;
#210 = AXIS2_PLACEMENT_3D ( 'NONE', #39, #137, #45 ) ;
#211 = AXIS2_PLACEMENT_3D ( 'NONE', #42, #147, #86 ) ;
#212 = AXIS2_PLACEMENT_3D ( 'NONE', #112, #70, #93 ) ;
#213 = AXIS2_PLACEMENT_3D ( 'NONE', #131, #57, #118 ) ;
#214 = EDGE_CURVE ( 'NONE', #313, #227, #272, .T. ) ;
#215 = STYLED_ITEM ( 'NONE', ( #351 ), #15 ) ;
#216 = EDGE_CURVE ( 'NONE', #312, #291, #352, .T. ) ;
#217 = PRODUCT ( '0710000007A', '0710000007A', '', ( #11 ) ) ;
#218 = ORIENTED_EDGE ( 'NONE', *, *, #195, .T. ) ;
#219 = EDGE_LOOP ( 'NONE', ( #347, #241, #353, #248 ) ) ;
#220 = ORIENTED_EDGE ( 'NONE', *, *, #193, .T. ) ;
#221 = EDGE_LOOP ( 'NONE', ( #239, #318, #233, #222 ) ) ;
#222 = ORIENTED_EDGE ( 'NONE', *, *, #194, .F. ) ;
#223 = VECTOR ( 'NONE', #122, 1000.000000000000100 ) ;
#224 = CONICAL_SURFACE ( 'NONE', #185, 22.00000000000002800, 0.7853981633974456100 ) ;
#225 = ORIENTED_EDGE ( 'NONE', *, *, #204, .F. ) ;
#226 = ORIENTED_EDGE ( 'NONE', *, *, #206, .T. ) ;
#227 = VERTEX_POINT ( 'NONE', #22 ) ;
#228 = VERTEX_POINT ( 'NONE', #28 ) ;
#229 = ORIENTED_EDGE ( 'NONE', *, *, #205, .T. ) ;
#230 = EDGE_LOOP ( 'NONE', ( #321, #231, #356, #235 ) ) ;
#231 = ORIENTED_EDGE ( 'NONE', *, *, #216, .T. ) ;
#232 = ORIENTED_EDGE ( 'NONE', *, *, #197, .F. ) ;
#233 = ORIENTED_EDGE ( 'NONE', *, *, #175, .F. ) ;
#234 = EDGE_LOOP ( 'NONE', ( #357, #323 ) ) ;
#235 = ORIENTED_EDGE ( 'NONE', *, *, #191, .F. ) ;
#236 = ORIENTED_EDGE ( 'NONE', *, *, #209, .F. ) ;
#237 = EDGE_LOOP ( 'NONE', ( #240, #238 ) ) ;
#238 = ORIENTED_EDGE ( 'NONE', *, *, #202, .F. ) ;
#239 = ORIENTED_EDGE ( 'NONE', *, *, #189, .T. ) ;
#240 = ORIENTED_EDGE ( 'NONE', *, *, #207, .F. ) ;
#241 = ORIENTED_EDGE ( 'NONE', *, *, #201, .T. ) ;
#242 = ORIENTED_EDGE ( 'NONE', *, *, #214, .T. ) ;
#243 = EDGE_LOOP ( 'NONE', ( #246, #286, #290, #324 ) ) ;
#244 = VERTEX_POINT ( 'NONE', #110 ) ;
#245 = VERTEX_POINT ( 'NONE', #111 ) ;
#246 = ORIENTED_EDGE ( 'NONE', *, *, #207, .T. ) ;
#247 = ORIENTED_EDGE ( 'NONE', *, *, #199, .T. ) ;
#248 = ORIENTED_EDGE ( 'NONE', *, *, #199, .F. ) ;
#249 = EDGE_LOOP ( 'NONE', ( #341, #218, #288, #300 ) ) ;
#250 = VERTEX_POINT ( 'NONE', #150 ) ;
#251 = ORIENTED_EDGE ( 'NONE', *, *, #196, .F. ) ;
#252 = CIRCLE ( 'NONE', #213, 16.25000000000002100 ) ;
#253 = VECTOR ( 'NONE', #107, 1000.000000000000100 ) ;
#254 = LINE ( 'NONE', #128, #253 ) ;
#255 = CIRCLE ( 'NONE', #211, 16.25000000000002100 ) ;
#256 = VECTOR ( 'NONE', #121, 1000.000000000000000 ) ;
#257 = CIRCLE ( 'NONE', #210, 0.5000000000000136600 ) ;
#258 = CIRCLE ( 'NONE', #212, 24.50000000000001800 ) ;
#259 = CIRCLE ( 'NONE', #187, 23.99999999999999600 ) ;
#260 = CIRCLE ( 'NONE', #177, 0.5000000000000136600 ) ;
#261 = CIRCLE ( 'NONE', #179, 24.50000000000001800 ) ;
#262 = TOROIDAL_SURFACE ( 'NONE', #186, 0.5000000000000175400, 23.99999999999999600 ) ;
#263 = CONICAL_SURFACE ( 'NONE', #163, 15.25000000000002500, 0.7853981633974422800 ) ;
#264 = CIRCLE ( 'NONE', #151, 24.50000000000001800 ) ;
#265 = VERTEX_POINT ( 'NONE', #106 ) ;
#266 = EDGE_LOOP ( 'NONE', ( #226, #281, #251, #287 ) ) ;
#267 = CIRCLE ( 'NONE', #156, 15.25000000000002500 ) ;
#268 = VECTOR ( 'NONE', #80, 1000.000000000000000 ) ;
#269 = CIRCLE ( 'NONE', #152, 16.25000000000001400 ) ;
#270 = FACE_OUTER_BOUND ( 'NONE', #314, .T. ) ;
#271 = FACE_OUTER_BOUND ( 'NONE', #221, .T. ) ;
#272 = CIRCLE ( 'NONE', #157, 22.00000000000002800 ) ;
#273 = FACE_OUTER_BOUND ( 'NONE', #307, .T. ) ;
#274 = VECTOR ( 'NONE', #38, 1000.000000000000000 ) ;
#275 = ORIENTED_EDGE ( 'NONE', *, *, #200, .T. ) ;
#276 = ORIENTED_EDGE ( 'NONE', *, *, #195, .F. ) ;
#277 = VECTOR ( 'NONE', #58, 1000.000000000000000 ) ;
#278 = CIRCLE ( 'NONE', #180, 22.00000000000002800 ) ;
#279 = LINE ( 'NONE', #123, #256 ) ;
#280 = LINE ( 'NONE', #43, #308 ) ;
#281 = ORIENTED_EDGE ( 'NONE', *, *, #192, .T. ) ;
#282 = CIRCLE ( 'NONE', #153, 15.25000000000002500 ) ;
#283 = LINE ( 'NONE', #53, #274 ) ;
#284 = VERTEX_POINT ( 'NONE', #55 ) ;
#285 = SURFACE_STYLE_FILL_AREA ( #108 ) ;
#286 = ORIENTED_EDGE ( 'NONE', *, *, #209, .T. ) ;
#287 = ORIENTED_EDGE ( 'NONE', *, *, #198, .F. ) ;
#288 = ORIENTED_EDGE ( 'NONE', *, *, #197, .T. ) ;
#289 = VERTEX_POINT ( 'NONE', #40 ) ;
#290 = ORIENTED_EDGE ( 'NONE', *, *, #206, .F. ) ;
#291 = VERTEX_POINT ( 'NONE', #73 ) ;
#292 = CYLINDRICAL_SURFACE ( 'NONE', #154, 16.25000000000001800 ) ;
#293 = VERTEX_POINT ( 'NONE', #91 ) ;
#294 = LINE ( 'NONE', #60, #268 ) ;
#295 = VERTEX_POINT ( 'NONE', #32 ) ;
#296 = VERTEX_POINT ( 'NONE', #130 ) ;
#297 = EDGE_LOOP ( 'NONE', ( #317, #275, #298, #232 ) ) ;
#298 = ORIENTED_EDGE ( 'NONE', *, *, #208, .F. ) ;
#299 = ORIENTED_EDGE ( 'NONE', *, *, #203, .T. ) ;
#300 = ORIENTED_EDGE ( 'NONE', *, *, #203, .F. ) ;
#301 = CLOSED_SHELL ( 'NONE', ( #366, #365, #361, #362, #368, #372, #360, #363, #370, #364, #371, #367, #369 ) ) ;
#302 = EDGE_LOOP ( 'NONE', ( #316, #299, #344, #346 ) ) ;
#303 = ORIENTED_EDGE ( 'NONE', *, *, #201, .F. ) ;
#304 = EDGE_LOOP ( 'NONE', ( #220, #348 ) ) ;
#305 = FACE_OUTER_BOUND ( 'NONE', #243, .T. ) ;
#306 = EDGE_LOOP ( 'NONE', ( #355, #247 ) ) ;
#307 = EDGE_LOOP ( 'NONE', ( #236, #315, #229, #303 ) ) ;
#308 = VECTOR ( 'NONE', #140, 1000.000000000000000 ) ;
#309 = ORIENTED_EDGE ( 'NONE', *, *, #194, .T. ) ;
#310 = LINE ( 'NONE', #62, #277 ) ;
#311 = CIRCLE ( 'NONE', #183, 16.25000000000001400 ) ;
#312 = VERTEX_POINT ( 'NONE', #85 ) ;
#313 = VERTEX_POINT ( 'NONE', #48 ) ;
#314 = EDGE_LOOP ( 'NONE', ( #225, #242, #309, #276 ) ) ;
#315 = ORIENTED_EDGE ( 'NONE', *, *, #202, .T. ) ;
#316 = ORIENTED_EDGE ( 'NONE', *, *, #216, .F. ) ;
#317 = ORIENTED_EDGE ( 'NONE', *, *, #175, .T. ) ;
#318 = ORIENTED_EDGE ( 'NONE', *, *, #204, .T. ) ;
#319 = VECTOR ( 'NONE', #136, 1000.000000000000000 ) ;
#320 = CIRCLE ( 'NONE', #155, 24.50000000000001800 ) ;
#321 = ORIENTED_EDGE ( 'NONE', *, *, #208, .T. ) ;
#322 = LINE ( 'NONE', #56, #319 ) ;
#323 = ORIENTED_EDGE ( 'NONE', *, *, #214, .F. ) ;
#324 = ORIENTED_EDGE ( 'NONE', *, *, #205, .F. ) ;
#325 = CONICAL_SURFACE ( 'NONE', #178, 15.25000000000002500, 0.7853981633974422800 ) ;
#326 = PRESENTATION_STYLE_ASSIGNMENT (( #6 ) ) ;
#327 = TOROIDAL_SURFACE ( 'NONE', #165, 0.5000000000000175400, 23.99999999999999600 ) ;
#328 = FACE_OUTER_BOUND ( 'NONE', #266, .T. ) ;
#329 = CONICAL_SURFACE ( 'NONE', #188, 22.00000000000002800, 0.7853981633974456100 ) ;
#330 = FACE_OUTER_BOUND ( 'NONE', #234, .T. ) ;
#331 = FACE_OUTER_BOUND ( 'NONE', #219, .T. ) ;
#332 = CYLINDRICAL_SURFACE ( 'NONE', #162, 16.25000000000001800 ) ;
#333 = COLOUR_RGB ( '',0.3960784313725490000, 0.4784313725490195700, 0.8039215686274510100 ) ;
#334 = COLOUR_RGB ( '',0.3960784313725490000, 0.4784313725490195700, 0.8039215686274510100 ) ;
#335 = FACE_OUTER_BOUND ( 'NONE', #249, .T. ) ;
#336 = FACE_OUTER_BOUND ( 'NONE', #297, .T. ) ;
#337 = FACE_BOUND ( 'NONE', #306, .T. ) ;
#338 = SHAPE_DEFINITION_REPRESENTATION ( #359, #17 ) ;
#339 = FACE_OUTER_BOUND ( 'NONE', #302, .T. ) ;
#340 = CYLINDRICAL_SURFACE ( 'NONE', #164, 24.50000000000001800 ) ;
#341 = ORIENTED_EDGE ( 'NONE', *, *, #200, .F. ) ;
#342 = FACE_OUTER_BOUND ( 'NONE', #304, .T. ) ;
#343 = FACE_OUTER_BOUND ( 'NONE', #237, .T. ) ;
#344 = ORIENTED_EDGE ( 'NONE', *, *, #191, .T. ) ;
#345 = FACE_OUTER_BOUND ( 'NONE', #230, .T. ) ;
#346 = ORIENTED_EDGE ( 'NONE', *, *, #190, .F. ) ;
#347 = ORIENTED_EDGE ( 'NONE', *, *, #192, .F. ) ;
#348 = ORIENTED_EDGE ( 'NONE', *, *, #190, .T. ) ;
#349 = CYLINDRICAL_SURFACE ( 'NONE', #176, 24.50000000000001800 ) ;
#350 = LINE ( 'NONE', #104, #223 ) ;
#351 = PRESENTATION_STYLE_ASSIGNMENT (( #26 ) ) ;
#352 = CIRCLE ( 'NONE', #158, 23.99999999999999600 ) ;
#353 = ORIENTED_EDGE ( 'NONE', *, *, #198, .T. ) ;
#354 = SURFACE_STYLE_FILL_AREA ( #12 ) ;
#355 = ORIENTED_EDGE ( 'NONE', *, *, #196, .T. ) ;
#356 = ORIENTED_EDGE ( 'NONE', *, *, #193, .F. ) ;
#357 = ORIENTED_EDGE ( 'NONE', *, *, #189, .F. ) ;
#358 = PRODUCT_DEFINITION_CONTEXT ( 'detailed design', #9, 'design' ) ;
#359 = PRODUCT_DEFINITION_SHAPE ( 'NONE', 'NONE',  #173 ) ;
#360 = ADVANCED_FACE ( 'NONE', ( #273 ), #325, .T. ) ;
#361 = ADVANCED_FACE ( 'NONE', ( #271 ), #329, .T. ) ;
#362 = ADVANCED_FACE ( 'NONE', ( #328 ), #292, .T. ) ;
#363 = ADVANCED_FACE ( 'NONE', ( #331 ), #332, .T. ) ;
#364 = ADVANCED_FACE ( 'NONE', ( #270 ), #224, .T. ) ;
#365 = ADVANCED_FACE ( 'NONE', ( #336 ), #340, .T. ) ;
#366 = ADVANCED_FACE ( 'NONE', ( #345 ), #262, .T. ) ;
#367 = ADVANCED_FACE ( 'NONE', ( #339 ), #327, .T. ) ;
#368 = ADVANCED_FACE ( 'NONE', ( #305 ), #263, .T. ) ;
#369 = ADVANCED_FACE ( 'NONE', ( #342 ), #88, .F. ) ;
#370 = ADVANCED_FACE ( 'NONE', ( #330, #337 ), #81, .F. ) ;
#371 = ADVANCED_FACE ( 'NONE', ( #335 ), #349, .T. ) ;
#372 = ADVANCED_FACE ( 'NONE', ( #343 ), #102, .F. ) ;
ENDSEC;
END-ISO-10303-21;
