ISO-10303-21;
HEADER;
/* Generated by software containing ST-Developer
 * from STEP Tools, Inc. (www.steptools.com) 
 */
/* OPTION: using custom schema-name function */

FILE_DESCRIPTION(
/* description */ (''),
/* implementation_level */ '2;1');

FILE_NAME(
/* name */ '303076_SP_G34_13.10.16',
/* time_stamp */ '2016-10-13T09:19:16+02:00',
/* author */ (''),
/* organization */ (''),
/* preprocessor_version */ 'ST-DEVELOPER v16.5',
/* originating_system */ 'HiCAD 2016 2101.0 Build 254',
/* authorisation */ '');

FILE_SCHEMA (('AUTOMOTIVE_DESIGN { 1 0 10303 214 1 1 1 1 }'));
ENDSEC;

DATA;
#10=ITEM_DEFINED_TRANSFORMATION('','',#514,#515);
#11=ITEM_DEFINED_TRANSFORMATION('','',#516,#517);
#12=(
REPRESENTATION_RELATIONSHIP('','',#197,#196)
REPRESENTATION_RELATIONSHIP_WITH_TRANSFORMATION(#10)
SHAPE_REPRESENTATION_RELATIONSHIP()
);
#13=(
REPRESENTATION_RELATIONSHIP('','',#196,#544)
REPRESENTATION_RELATIONSHIP_WITH_TRANSFORMATION(#11)
SHAPE_REPRESENTATION_RELATIONSHIP()
);
#14=CONTEXT_DEPENDENT_SHAPE_REPRESENTATION(#12,#548);
#15=CONTEXT_DEPENDENT_SHAPE_REPRESENTATION(#13,#549);
#16=NEXT_ASSEMBLY_USAGE_OCCURRENCE('ROTATIONSTEIL_0','ROTATIONSTEIL_0',
'',#552,#553,$);
#17=NEXT_ASSEMBLY_USAGE_OCCURRENCE('303075','303075','',#551,#552,$);
#18=DRAUGHTING_PRE_DEFINED_CURVE_FONT('continuous');
#19=DRAUGHTING_PRE_DEFINED_CURVE_FONT('continuous');
#20=DRAUGHTING_PRE_DEFINED_CURVE_FONT('continuous');
#21=DRAUGHTING_PRE_DEFINED_CURVE_FONT('continuous');
#22=DRAUGHTING_PRE_DEFINED_CURVE_FONT('continuous');
#23=DRAUGHTING_PRE_DEFINED_CURVE_FONT('continuous');
#24=DRAUGHTING_PRE_DEFINED_CURVE_FONT('continuous');
#25=DRAUGHTING_PRE_DEFINED_CURVE_FONT('continuous');
#26=DRAUGHTING_PRE_DEFINED_CURVE_FONT('continuous');
#27=DRAUGHTING_PRE_DEFINED_CURVE_FONT('continuous');
#28=DRAUGHTING_PRE_DEFINED_CURVE_FONT('continuous');
#29=DRAUGHTING_PRE_DEFINED_CURVE_FONT('continuous');
#30=DRAUGHTING_PRE_DEFINED_CURVE_FONT('continuous');
#31=DRAUGHTING_PRE_DEFINED_CURVE_FONT('continuous');
#32=DRAUGHTING_PRE_DEFINED_CURVE_FONT('continuous');
#33=DRAUGHTING_PRE_DEFINED_CURVE_FONT('continuous');
#34=DRAUGHTING_PRE_DEFINED_CURVE_FONT('continuous');
#35=DRAUGHTING_PRE_DEFINED_CURVE_FONT('continuous');
#36=DRAUGHTING_PRE_DEFINED_CURVE_FONT('continuous');
#37=DRAUGHTING_PRE_DEFINED_CURVE_FONT('continuous');
#38=DRAUGHTING_PRE_DEFINED_CURVE_FONT('continuous');
#39=DRAUGHTING_PRE_DEFINED_CURVE_FONT('continuous');
#40=DRAUGHTING_PRE_DEFINED_CURVE_FONT('continuous');
#41=DRAUGHTING_PRE_DEFINED_CURVE_FONT('continuous');
#42=DRAUGHTING_PRE_DEFINED_CURVE_FONT('continuous');
#43=DRAUGHTING_PRE_DEFINED_CURVE_FONT('continuous');
#44=DRAUGHTING_PRE_DEFINED_CURVE_FONT('continuous');
#45=DRAUGHTING_PRE_DEFINED_CURVE_FONT('continuous');
#46=DRAUGHTING_PRE_DEFINED_CURVE_FONT('continuous');
#47=DRAUGHTING_PRE_DEFINED_CURVE_FONT('continuous');
#48=DRAUGHTING_PRE_DEFINED_CURVE_FONT('continuous');
#49=DRAUGHTING_PRE_DEFINED_CURVE_FONT('continuous');
#50=CURVE_STYLE(' ',#18,POSITIVE_LENGTH_MEASURE(0.352777777777778),#159);
#51=CURVE_STYLE(' ',#19,POSITIVE_LENGTH_MEASURE(0.352777777777778),#160);
#52=CURVE_STYLE(' ',#20,POSITIVE_LENGTH_MEASURE(0.352777777777778),#161);
#53=CURVE_STYLE(' ',#21,POSITIVE_LENGTH_MEASURE(0.352777777777778),#162);
#54=CURVE_STYLE(' ',#22,POSITIVE_LENGTH_MEASURE(0.352777777777778),#163);
#55=CURVE_STYLE(' ',#23,POSITIVE_LENGTH_MEASURE(0.352777777777778),#164);
#56=CURVE_STYLE(' ',#24,POSITIVE_LENGTH_MEASURE(0.352777777777778),#165);
#57=CURVE_STYLE(' ',#25,POSITIVE_LENGTH_MEASURE(0.352777777777778),#166);
#58=CURVE_STYLE(' ',#26,POSITIVE_LENGTH_MEASURE(0.352777777777778),#167);
#59=CURVE_STYLE(' ',#27,POSITIVE_LENGTH_MEASURE(0.352777777777778),#168);
#60=CURVE_STYLE(' ',#28,POSITIVE_LENGTH_MEASURE(0.352777777777778),#169);
#61=CURVE_STYLE(' ',#29,POSITIVE_LENGTH_MEASURE(0.352777777777778),#170);
#62=CURVE_STYLE(' ',#30,POSITIVE_LENGTH_MEASURE(0.352777777777778),#171);
#63=CURVE_STYLE(' ',#31,POSITIVE_LENGTH_MEASURE(0.352777777777778),#172);
#64=CURVE_STYLE(' ',#32,POSITIVE_LENGTH_MEASURE(0.352777777777778),#173);
#65=CURVE_STYLE(' ',#33,POSITIVE_LENGTH_MEASURE(0.352777777777778),#174);
#66=CURVE_STYLE(' ',#34,POSITIVE_LENGTH_MEASURE(0.352777777777778),#175);
#67=CURVE_STYLE(' ',#35,POSITIVE_LENGTH_MEASURE(0.352777777777778),#176);
#68=CURVE_STYLE(' ',#36,POSITIVE_LENGTH_MEASURE(0.352777777777778),#177);
#69=CURVE_STYLE(' ',#37,POSITIVE_LENGTH_MEASURE(0.352777777777778),#178);
#70=CURVE_STYLE(' ',#38,POSITIVE_LENGTH_MEASURE(0.352777777777778),#179);
#71=CURVE_STYLE(' ',#39,POSITIVE_LENGTH_MEASURE(0.352777777777778),#180);
#72=CURVE_STYLE(' ',#40,POSITIVE_LENGTH_MEASURE(0.352777777777778),#181);
#73=CURVE_STYLE(' ',#41,POSITIVE_LENGTH_MEASURE(0.352777777777778),#182);
#74=CURVE_STYLE(' ',#42,POSITIVE_LENGTH_MEASURE(0.352777777777778),#183);
#75=CURVE_STYLE(' ',#43,POSITIVE_LENGTH_MEASURE(0.352777777777778),#184);
#76=CURVE_STYLE(' ',#44,POSITIVE_LENGTH_MEASURE(0.352777777777778),#186);
#77=CURVE_STYLE(' ',#45,POSITIVE_LENGTH_MEASURE(0.352777777777778),#187);
#78=CURVE_STYLE(' ',#46,POSITIVE_LENGTH_MEASURE(0.352777777777778),#188);
#79=CURVE_STYLE(' ',#47,POSITIVE_LENGTH_MEASURE(0.352777777777778),#189);
#80=CURVE_STYLE(' ',#48,POSITIVE_LENGTH_MEASURE(0.352777777777778),#190);
#81=CURVE_STYLE(' ',#49,POSITIVE_LENGTH_MEASURE(0.352777777777778),#191);
#82=OVER_RIDING_STYLED_ITEM('Edge Colour',(#115),#274,#192);
#83=OVER_RIDING_STYLED_ITEM('Edge Colour',(#116),#275,#192);
#84=OVER_RIDING_STYLED_ITEM('Edge Colour',(#117),#276,#192);
#85=OVER_RIDING_STYLED_ITEM('Edge Colour',(#118),#277,#192);
#86=OVER_RIDING_STYLED_ITEM('Edge Colour',(#119),#278,#192);
#87=OVER_RIDING_STYLED_ITEM('Edge Colour',(#120),#279,#192);
#88=OVER_RIDING_STYLED_ITEM('Edge Colour',(#121),#279,#192);
#89=OVER_RIDING_STYLED_ITEM('Edge Colour',(#122),#280,#192);
#90=OVER_RIDING_STYLED_ITEM('Edge Colour',(#123),#280,#192);
#91=OVER_RIDING_STYLED_ITEM('Edge Colour',(#124),#281,#192);
#92=OVER_RIDING_STYLED_ITEM('Edge Colour',(#125),#281,#192);
#93=OVER_RIDING_STYLED_ITEM('Edge Colour',(#126),#282,#192);
#94=OVER_RIDING_STYLED_ITEM('Edge Colour',(#127),#283,#192);
#95=OVER_RIDING_STYLED_ITEM('Edge Colour',(#128),#282,#192);
#96=OVER_RIDING_STYLED_ITEM('Edge Colour',(#129),#284,#192);
#97=OVER_RIDING_STYLED_ITEM('Edge Colour',(#130),#283,#192);
#98=OVER_RIDING_STYLED_ITEM('Edge Colour',(#131),#285,#192);
#99=OVER_RIDING_STYLED_ITEM('Edge Colour',(#132),#284,#192);
#100=OVER_RIDING_STYLED_ITEM('Edge Colour',(#133),#285,#192);
#101=OVER_RIDING_STYLED_ITEM('Edge Colour',(#134),#286,#192);
#102=OVER_RIDING_STYLED_ITEM('Edge Colour',(#135),#275,#192);
#103=OVER_RIDING_STYLED_ITEM('Edge Colour',(#136),#286,#192);
#104=OVER_RIDING_STYLED_ITEM('Edge Colour',(#137),#278,#192);
#105=OVER_RIDING_STYLED_ITEM('Edge Colour',(#138),#276,#192);
#106=OVER_RIDING_STYLED_ITEM('Edge Colour',(#139),#274,#192);
#107=OVER_RIDING_STYLED_ITEM('Edge Colour',(#140),#277,#192);
#108=OVER_RIDING_STYLED_ITEM('Edge Colour',(#142),#287,#193);
#109=OVER_RIDING_STYLED_ITEM('Edge Colour',(#143),#287,#193);
#110=OVER_RIDING_STYLED_ITEM('Edge Colour',(#144),#288,#193);
#111=OVER_RIDING_STYLED_ITEM('Edge Colour',(#145),#288,#193);
#112=OVER_RIDING_STYLED_ITEM('Edge Colour',(#146),#289,#193);
#113=OVER_RIDING_STYLED_ITEM('Edge Colour',(#147),#289,#193);
#114=PRESENTATION_STYLE_ASSIGNMENT((#148));
#115=PRESENTATION_STYLE_ASSIGNMENT((#50));
#116=PRESENTATION_STYLE_ASSIGNMENT((#51));
#117=PRESENTATION_STYLE_ASSIGNMENT((#52));
#118=PRESENTATION_STYLE_ASSIGNMENT((#53));
#119=PRESENTATION_STYLE_ASSIGNMENT((#54));
#120=PRESENTATION_STYLE_ASSIGNMENT((#55));
#121=PRESENTATION_STYLE_ASSIGNMENT((#56));
#122=PRESENTATION_STYLE_ASSIGNMENT((#57));
#123=PRESENTATION_STYLE_ASSIGNMENT((#58));
#124=PRESENTATION_STYLE_ASSIGNMENT((#59));
#125=PRESENTATION_STYLE_ASSIGNMENT((#60));
#126=PRESENTATION_STYLE_ASSIGNMENT((#61));
#127=PRESENTATION_STYLE_ASSIGNMENT((#62));
#128=PRESENTATION_STYLE_ASSIGNMENT((#63));
#129=PRESENTATION_STYLE_ASSIGNMENT((#64));
#130=PRESENTATION_STYLE_ASSIGNMENT((#65));
#131=PRESENTATION_STYLE_ASSIGNMENT((#66));
#132=PRESENTATION_STYLE_ASSIGNMENT((#67));
#133=PRESENTATION_STYLE_ASSIGNMENT((#68));
#134=PRESENTATION_STYLE_ASSIGNMENT((#69));
#135=PRESENTATION_STYLE_ASSIGNMENT((#70));
#136=PRESENTATION_STYLE_ASSIGNMENT((#71));
#137=PRESENTATION_STYLE_ASSIGNMENT((#72));
#138=PRESENTATION_STYLE_ASSIGNMENT((#73));
#139=PRESENTATION_STYLE_ASSIGNMENT((#74));
#140=PRESENTATION_STYLE_ASSIGNMENT((#75));
#141=PRESENTATION_STYLE_ASSIGNMENT((#149));
#142=PRESENTATION_STYLE_ASSIGNMENT((#76));
#143=PRESENTATION_STYLE_ASSIGNMENT((#77));
#144=PRESENTATION_STYLE_ASSIGNMENT((#78));
#145=PRESENTATION_STYLE_ASSIGNMENT((#79));
#146=PRESENTATION_STYLE_ASSIGNMENT((#80));
#147=PRESENTATION_STYLE_ASSIGNMENT((#81));
#148=SURFACE_STYLE_USAGE(.BOTH.,#150);
#149=SURFACE_STYLE_USAGE(.BOTH.,#151);
#150=SURFACE_SIDE_STYLE('',(#152));
#151=SURFACE_SIDE_STYLE('',(#153));
#152=SURFACE_STYLE_FILL_AREA(#154);
#153=SURFACE_STYLE_FILL_AREA(#155);
#154=FILL_AREA_STYLE('',(#156));
#155=FILL_AREA_STYLE('',(#157));
#156=FILL_AREA_STYLE_COLOUR('',#158);
#157=FILL_AREA_STYLE_COLOUR('',#185);
#158=COLOUR_RGB('',0.815685987472534,0.741176009178162,0.215685993432999);
#159=COLOUR_RGB('',0.,0.,0.);
#160=COLOUR_RGB('',0.,0.,0.);
#161=COLOUR_RGB('',0.,0.,0.);
#162=COLOUR_RGB('',0.,0.,0.);
#163=COLOUR_RGB('',0.,0.,0.);
#164=COLOUR_RGB('',0.,0.,0.);
#165=COLOUR_RGB('',0.,0.,0.);
#166=COLOUR_RGB('',0.,0.,0.);
#167=COLOUR_RGB('',0.,0.,0.);
#168=COLOUR_RGB('',0.,0.,0.);
#169=COLOUR_RGB('',0.,0.,0.);
#170=COLOUR_RGB('',0.,0.,0.);
#171=COLOUR_RGB('',0.,0.,0.);
#172=COLOUR_RGB('',0.,0.,0.);
#173=COLOUR_RGB('',0.,0.,0.);
#174=COLOUR_RGB('',0.,0.,0.);
#175=COLOUR_RGB('',0.,0.,0.);
#176=COLOUR_RGB('',0.,0.,0.);
#177=COLOUR_RGB('',0.,0.,0.);
#178=COLOUR_RGB('',0.,0.,0.);
#179=COLOUR_RGB('',0.,0.,0.);
#180=COLOUR_RGB('',0.,0.,0.);
#181=COLOUR_RGB('',0.,0.,0.);
#182=COLOUR_RGB('',0.,0.,0.);
#183=COLOUR_RGB('',0.,0.,0.);
#184=COLOUR_RGB('',0.,0.,0.);
#185=COLOUR_RGB('',0.980391979217529,0.788235008716583,0.121569000184536);
#186=COLOUR_RGB('',0.,0.,0.);
#187=COLOUR_RGB('',0.,0.,0.);
#188=COLOUR_RGB('',0.,0.,0.);
#189=COLOUR_RGB('',0.,0.,0.);
#190=COLOUR_RGB('',0.,0.,0.);
#191=COLOUR_RGB('',0.,0.,0.);
#192=STYLED_ITEM('Solid Colour',(#114),#542);
#193=STYLED_ITEM('Solid Colour',(#141),#543);
#194=MECHANICAL_DESIGN_GEOMETRIC_PRESENTATION_REPRESENTATION(
'Container for Styled_item',(#83,#84,#82,#192,#193,#90,#88,#102,#99,#95,
#93,#89,#103,#105,#87,#97,#98,#85,#91,#96,#100,#92,#94,#104,#101,#86,#108,
#109,#106,#107,#110,#111,#112,#113),#568);
#195=PRESENTATION_LAYER_ASSIGNMENT('APPLE','1',(#542,#543));
#196=ADVANCED_BREP_SHAPE_REPRESENTATION('Body',(#542,#515,#516),#570);
#197=ADVANCED_BREP_SHAPE_REPRESENTATION('Body',(#543,#514),#569);
#198=CLOSED_SHELL('',(#525,#526,#527,#528,#529,#530,#531,#532,#533,#534,
#535,#536,#537));
#199=CLOSED_SHELL('',(#538,#539,#540,#541));
#200=CONICAL_SURFACE('',#506,13.2205,45.);
#201=TOROIDAL_SURFACE('',#490,10.75,1.);
#202=TOROIDAL_SURFACE('',#498,10.75,0.5);
#203=TOROIDAL_SURFACE('',#511,10.75,0.5);
#204=CYLINDRICAL_SURFACE('',#484,13.2205);
#205=CYLINDRICAL_SURFACE('',#487,11.75);
#206=CYLINDRICAL_SURFACE('',#494,10.);
#207=CYLINDRICAL_SURFACE('',#500,11.25);
#208=CYLINDRICAL_SURFACE('',#504,9.50000000000002);
#209=CYLINDRICAL_SURFACE('',#509,11.25);
#210=ORIENTED_EDGE('',*,*,#274,.T.);
#211=ORIENTED_EDGE('',*,*,#275,.T.);
#212=ORIENTED_EDGE('',*,*,#276,.F.);
#213=ORIENTED_EDGE('',*,*,#277,.T.);
#214=ORIENTED_EDGE('',*,*,#278,.T.);
#215=ORIENTED_EDGE('',*,*,#279,.T.);
#216=ORIENTED_EDGE('',*,*,#279,.F.);
#217=ORIENTED_EDGE('',*,*,#280,.T.);
#218=ORIENTED_EDGE('',*,*,#280,.F.);
#219=ORIENTED_EDGE('',*,*,#281,.T.);
#220=ORIENTED_EDGE('',*,*,#281,.T.);
#221=ORIENTED_EDGE('',*,*,#282,.F.);
#222=ORIENTED_EDGE('',*,*,#283,.F.);
#223=ORIENTED_EDGE('',*,*,#282,.F.);
#224=ORIENTED_EDGE('',*,*,#284,.T.);
#225=ORIENTED_EDGE('',*,*,#283,.F.);
#226=ORIENTED_EDGE('',*,*,#285,.F.);
#227=ORIENTED_EDGE('',*,*,#284,.F.);
#228=ORIENTED_EDGE('',*,*,#285,.F.);
#229=ORIENTED_EDGE('',*,*,#286,.T.);
#230=ORIENTED_EDGE('',*,*,#275,.T.);
#231=ORIENTED_EDGE('',*,*,#286,.T.);
#232=ORIENTED_EDGE('',*,*,#278,.F.);
#233=ORIENTED_EDGE('',*,*,#276,.T.);
#234=ORIENTED_EDGE('',*,*,#274,.F.);
#235=ORIENTED_EDGE('',*,*,#277,.F.);
#236=ORIENTED_EDGE('',*,*,#287,.F.);
#237=ORIENTED_EDGE('',*,*,#287,.T.);
#238=ORIENTED_EDGE('',*,*,#288,.F.);
#239=ORIENTED_EDGE('',*,*,#288,.T.);
#240=ORIENTED_EDGE('',*,*,#289,.F.);
#241=ORIENTED_EDGE('',*,*,#289,.T.);
#242=CIRCLE('',#482,12.0205);
#243=CIRCLE('',#483,9.50000000000002);
#244=CIRCLE('',#485,13.2205);
#245=CIRCLE('',#486,13.2205);
#246=CIRCLE('',#488,11.75);
#247=CIRCLE('',#489,11.75);
#248=CIRCLE('',#491,10.75);
#249=CIRCLE('',#493,10.);
#250=CIRCLE('',#495,10.);
#251=CIRCLE('',#497,10.75);
#252=CIRCLE('',#499,11.25);
#253=CIRCLE('',#501,11.25);
#254=CIRCLE('',#503,9.50000000000002);
#255=CIRCLE('',#508,11.25);
#256=CIRCLE('',#510,11.25);
#257=CIRCLE('',#512,10.75);
#258=VERTEX_POINT('',#429);
#259=VERTEX_POINT('',#431);
#260=VERTEX_POINT('',#434);
#261=VERTEX_POINT('',#436);
#262=VERTEX_POINT('',#439);
#263=VERTEX_POINT('',#441);
#264=VERTEX_POINT('',#444);
#265=VERTEX_POINT('',#447);
#266=VERTEX_POINT('',#450);
#267=VERTEX_POINT('',#453);
#268=VERTEX_POINT('',#456);
#269=VERTEX_POINT('',#459);
#270=VERTEX_POINT('',#462);
#271=VERTEX_POINT('',#468);
#272=VERTEX_POINT('',#471);
#273=VERTEX_POINT('',#474);
#274=EDGE_CURVE('',#258,#258,#242,.T.);
#275=EDGE_CURVE('',#259,#259,#243,.T.);
#276=EDGE_CURVE('',#260,#260,#244,.T.);
#277=EDGE_CURVE('',#261,#261,#245,.T.);
#278=EDGE_CURVE('',#262,#262,#246,.T.);
#279=EDGE_CURVE('',#263,#263,#247,.T.);
#280=EDGE_CURVE('',#264,#264,#248,.T.);
#281=EDGE_CURVE('',#265,#265,#249,.T.);
#282=EDGE_CURVE('',#266,#266,#250,.T.);
#283=EDGE_CURVE('',#267,#267,#251,.T.);
#284=EDGE_CURVE('',#268,#268,#252,.T.);
#285=EDGE_CURVE('',#269,#269,#253,.T.);
#286=EDGE_CURVE('',#270,#270,#254,.T.);
#287=EDGE_CURVE('',#271,#271,#255,.T.);
#288=EDGE_CURVE('',#272,#272,#256,.T.);
#289=EDGE_CURVE('',#273,#273,#257,.T.);
#290=EDGE_LOOP('',(#210));
#291=EDGE_LOOP('',(#211));
#292=EDGE_LOOP('',(#212));
#293=EDGE_LOOP('',(#213));
#294=EDGE_LOOP('',(#214));
#295=EDGE_LOOP('',(#215));
#296=EDGE_LOOP('',(#216));
#297=EDGE_LOOP('',(#217));
#298=EDGE_LOOP('',(#218));
#299=EDGE_LOOP('',(#219));
#300=EDGE_LOOP('',(#220));
#301=EDGE_LOOP('',(#221));
#302=EDGE_LOOP('',(#222));
#303=EDGE_LOOP('',(#223));
#304=EDGE_LOOP('',(#224));
#305=EDGE_LOOP('',(#225));
#306=EDGE_LOOP('',(#226));
#307=EDGE_LOOP('',(#227));
#308=EDGE_LOOP('',(#228));
#309=EDGE_LOOP('',(#229));
#310=EDGE_LOOP('',(#230));
#311=EDGE_LOOP('',(#231));
#312=EDGE_LOOP('',(#232));
#313=EDGE_LOOP('',(#233));
#314=EDGE_LOOP('',(#234));
#315=EDGE_LOOP('',(#235));
#316=EDGE_LOOP('',(#236));
#317=EDGE_LOOP('',(#237));
#318=EDGE_LOOP('',(#238));
#319=EDGE_LOOP('',(#239));
#320=EDGE_LOOP('',(#240));
#321=EDGE_LOOP('',(#241));
#322=FACE_BOUND('',#290,.T.);
#323=FACE_BOUND('',#291,.T.);
#324=FACE_BOUND('',#292,.T.);
#325=FACE_BOUND('',#293,.T.);
#326=FACE_BOUND('',#294,.T.);
#327=FACE_BOUND('',#295,.T.);
#328=FACE_BOUND('',#296,.T.);
#329=FACE_BOUND('',#297,.T.);
#330=FACE_BOUND('',#298,.T.);
#331=FACE_BOUND('',#299,.T.);
#332=FACE_BOUND('',#300,.F.);
#333=FACE_BOUND('',#301,.F.);
#334=FACE_BOUND('',#302,.T.);
#335=FACE_BOUND('',#303,.T.);
#336=FACE_BOUND('',#304,.F.);
#337=FACE_BOUND('',#305,.F.);
#338=FACE_BOUND('',#306,.F.);
#339=FACE_BOUND('',#307,.F.);
#340=FACE_BOUND('',#308,.T.);
#341=FACE_BOUND('',#309,.T.);
#342=FACE_BOUND('',#310,.F.);
#343=FACE_BOUND('',#311,.F.);
#344=FACE_BOUND('',#312,.T.);
#345=FACE_BOUND('',#313,.T.);
#346=FACE_BOUND('',#314,.T.);
#347=FACE_BOUND('',#315,.T.);
#348=FACE_BOUND('',#316,.T.);
#349=FACE_BOUND('',#317,.T.);
#350=FACE_BOUND('',#318,.T.);
#351=FACE_BOUND('',#319,.T.);
#352=FACE_BOUND('',#320,.T.);
#353=FACE_BOUND('',#321,.T.);
#354=DIRECTION('',(0.,-1.,0.));
#355=DIRECTION('',(-1.,0.,0.));
#356=DIRECTION('',(0.,-1.,0.));
#357=DIRECTION('',(12.0205,0.,0.));
#358=DIRECTION('',(0.,1.,0.));
#359=DIRECTION('',(9.50000000000002,0.,0.));
#360=DIRECTION('',(0.,-1.,0.));
#361=DIRECTION('',(0.,0.,1.));
#362=DIRECTION('',(0.,1.,0.));
#363=DIRECTION('',(13.2205,0.,0.));
#364=DIRECTION('',(0.,1.,0.));
#365=DIRECTION('',(0.,0.,-13.2205));
#366=DIRECTION('',(0.,1.,0.));
#367=DIRECTION('',(1.,0.,0.));
#368=DIRECTION('',(0.,1.,0.));
#369=DIRECTION('',(11.75,0.,0.));
#370=DIRECTION('',(0.,-1.,0.));
#371=DIRECTION('',(0.,0.,11.75));
#372=DIRECTION('',(0.,1.,0.));
#373=DIRECTION('',(0.,0.,1.));
#374=DIRECTION('',(0.,-1.,0.));
#375=DIRECTION('',(0.,0.,10.75));
#376=DIRECTION('',(0.,1.,0.));
#377=DIRECTION('',(1.,0.,0.));
#378=DIRECTION('',(0.,-1.,0.));
#379=DIRECTION('',(10.,0.,0.));
#380=DIRECTION('',(0.,-1.,0.));
#381=DIRECTION('',(1.,0.,0.));
#382=DIRECTION('',(0.,-1.,0.));
#383=DIRECTION('',(0.,0.,10.));
#384=DIRECTION('',(0.,-1.,0.));
#385=DIRECTION('',(-1.,0.,0.));
#386=DIRECTION('',(0.,1.,0.));
#387=DIRECTION('',(0.,0.,10.75));
#388=DIRECTION('',(0.,1.,0.));
#389=DIRECTION('',(0.,0.,1.));
#390=DIRECTION('',(0.,1.,0.));
#391=DIRECTION('',(0.,0.,11.25));
#392=DIRECTION('',(0.,-1.,0.));
#393=DIRECTION('',(1.,0.,0.));
#394=DIRECTION('',(0.,-1.,0.));
#395=DIRECTION('',(11.25,0.,0.));
#396=DIRECTION('',(0.,1.,0.));
#397=DIRECTION('',(1.,0.,0.));
#398=DIRECTION('',(0.,-1.,0.));
#399=DIRECTION('',(9.50000000000002,0.,0.));
#400=DIRECTION('',(0.,-1.,0.));
#401=DIRECTION('',(1.,0.,0.));
#402=DIRECTION('',(0.,1.,0.));
#403=DIRECTION('',(1.,0.,0.));
#404=DIRECTION('',(0.,1.,0.));
#405=DIRECTION('',(-1.,0.,2.83276944882399E-16));
#406=DIRECTION('',(0.,-1.,0.));
#407=DIRECTION('',(-1.,0.,0.));
#408=DIRECTION('',(0.,1.,0.));
#409=DIRECTION('',(0.,0.,11.25));
#410=DIRECTION('',(0.,1.,0.));
#411=DIRECTION('',(1.,0.,0.));
#412=DIRECTION('',(0.,1.,0.));
#413=DIRECTION('',(0.,0.,11.25));
#414=DIRECTION('',(0.,1.,0.));
#415=DIRECTION('',(0.,0.,1.));
#416=DIRECTION('',(0.,1.,0.));
#417=DIRECTION('',(0.,0.,10.75));
#418=DIRECTION('',(0.,1.,0.));
#419=DIRECTION('',(1.,0.,0.));
#420=DIRECTION('',(0.,0.,1.));
#421=DIRECTION('',(1.,0.,0.));
#422=DIRECTION('',(0.,0.,1.));
#423=DIRECTION('',(1.,0.,0.));
#424=DIRECTION('',(0.,0.,1.));
#425=DIRECTION('',(1.,0.,0.));
#426=DIRECTION('',(0.,-1.,0.));
#427=DIRECTION('',(1.,0.,0.));
#428=CARTESIAN_POINT('',(31.652242,9.78414799999999,0.));
#429=CARTESIAN_POINT('',(31.614242,9.78414799999999,0.));
#430=CARTESIAN_POINT('',(19.593742,9.78414799999999,0.));
#431=CARTESIAN_POINT('',(29.093742,9.78414799999999,0.));
#432=CARTESIAN_POINT('',(19.593742,9.78414799999999,0.));
#433=CARTESIAN_POINT('',(19.593742,16.284148,0.));
#434=CARTESIAN_POINT('',(32.814242,16.284148,0.));
#435=CARTESIAN_POINT('',(19.593742,16.284148,0.));
#436=CARTESIAN_POINT('',(19.593742,10.984148,-13.2205));
#437=CARTESIAN_POINT('',(19.593742,10.984148,0.));
#438=CARTESIAN_POINT('',(19.593742,16.284148,0.));
#439=CARTESIAN_POINT('',(31.343742,16.284148,0.));
#440=CARTESIAN_POINT('',(19.593742,16.284148,0.));
#441=CARTESIAN_POINT('',(19.593742,16.784148,11.75));
#442=CARTESIAN_POINT('',(19.593742,16.784148,0.));
#443=CARTESIAN_POINT('',(19.593742,16.784148,0.));
#444=CARTESIAN_POINT('',(19.593742,17.784148,10.75));
#445=CARTESIAN_POINT('',(19.593742,17.784148,0.));
#446=CARTESIAN_POINT('',(30.343742,17.784148,0.));
#447=CARTESIAN_POINT('',(29.593742,17.784148,0.));
#448=CARTESIAN_POINT('',(19.593742,17.784148,0.));
#449=CARTESIAN_POINT('',(19.593742,17.784148,0.));
#450=CARTESIAN_POINT('',(19.593742,17.284148,10.));
#451=CARTESIAN_POINT('',(19.593742,17.284148,0.));
#452=CARTESIAN_POINT('',(30.343742,17.284148,0.));
#453=CARTESIAN_POINT('',(19.593742,17.284148,10.75));
#454=CARTESIAN_POINT('',(19.593742,17.284148,0.));
#455=CARTESIAN_POINT('',(19.593742,16.784148,0.));
#456=CARTESIAN_POINT('',(19.593742,16.784148,11.25));
#457=CARTESIAN_POINT('',(19.593742,16.784148,0.));
#458=CARTESIAN_POINT('',(19.593742,16.784148,0.));
#459=CARTESIAN_POINT('',(30.843742,13.784148,0.));
#460=CARTESIAN_POINT('',(19.593742,13.784148,0.));
#461=CARTESIAN_POINT('',(30.843742,13.784148,0.));
#462=CARTESIAN_POINT('',(29.093742,13.784148,0.));
#463=CARTESIAN_POINT('',(19.593742,13.784148,0.));
#464=CARTESIAN_POINT('',(19.593742,13.784148,0.));
#465=CARTESIAN_POINT('',(31.652242,16.284148,0.));
#466=CARTESIAN_POINT('',(19.593742,10.984148,0.));
#467=CARTESIAN_POINT('',(19.593742,13.784148,0.));
#468=CARTESIAN_POINT('',(30.843742,13.784148,0.));
#469=CARTESIAN_POINT('',(19.593742,13.784148,0.));
#470=CARTESIAN_POINT('',(19.593742,13.784148,0.));
#471=CARTESIAN_POINT('',(30.843742,16.784148,0.));
#472=CARTESIAN_POINT('',(19.593742,16.784148,0.));
#473=CARTESIAN_POINT('',(19.593742,16.784148,0.));
#474=CARTESIAN_POINT('',(30.343742,17.284148,0.));
#475=CARTESIAN_POINT('',(19.593742,17.284148,0.));
#476=CARTESIAN_POINT('',(19.593742,17.284148,0.));
#477=CARTESIAN_POINT('',(0.,0.,0.));
#478=CARTESIAN_POINT('',(0.,0.,0.));
#479=CARTESIAN_POINT('',(0.,0.,0.));
#480=CARTESIAN_POINT('',(0.,0.,0.));
#481=AXIS2_PLACEMENT_3D('',#428,#354,#355);
#482=AXIS2_PLACEMENT_3D('',#430,#356,#357);
#483=AXIS2_PLACEMENT_3D('',#432,#358,#359);
#484=AXIS2_PLACEMENT_3D('',#433,#360,#361);
#485=AXIS2_PLACEMENT_3D('',#435,#362,#363);
#486=AXIS2_PLACEMENT_3D('',#437,#364,#365);
#487=AXIS2_PLACEMENT_3D('',#438,#366,#367);
#488=AXIS2_PLACEMENT_3D('',#440,#368,#369);
#489=AXIS2_PLACEMENT_3D('',#442,#370,#371);
#490=AXIS2_PLACEMENT_3D('',#443,#372,#373);
#491=AXIS2_PLACEMENT_3D('',#445,#374,#375);
#492=AXIS2_PLACEMENT_3D('',#446,#376,#377);
#493=AXIS2_PLACEMENT_3D('',#448,#378,#379);
#494=AXIS2_PLACEMENT_3D('',#449,#380,#381);
#495=AXIS2_PLACEMENT_3D('',#451,#382,#383);
#496=AXIS2_PLACEMENT_3D('',#452,#384,#385);
#497=AXIS2_PLACEMENT_3D('',#454,#386,#387);
#498=AXIS2_PLACEMENT_3D('',#455,#388,#389);
#499=AXIS2_PLACEMENT_3D('',#457,#390,#391);
#500=AXIS2_PLACEMENT_3D('',#458,#392,#393);
#501=AXIS2_PLACEMENT_3D('',#460,#394,#395);
#502=AXIS2_PLACEMENT_3D('',#461,#396,#397);
#503=AXIS2_PLACEMENT_3D('',#463,#398,#399);
#504=AXIS2_PLACEMENT_3D('',#464,#400,#401);
#505=AXIS2_PLACEMENT_3D('',#465,#402,#403);
#506=AXIS2_PLACEMENT_3D('',#466,#404,#405);
#507=AXIS2_PLACEMENT_3D('',#467,#406,#407);
#508=AXIS2_PLACEMENT_3D('',#469,#408,#409);
#509=AXIS2_PLACEMENT_3D('',#470,#410,#411);
#510=AXIS2_PLACEMENT_3D('',#472,#412,#413);
#511=AXIS2_PLACEMENT_3D('',#473,#414,#415);
#512=AXIS2_PLACEMENT_3D('',#475,#416,#417);
#513=AXIS2_PLACEMENT_3D('',#476,#418,#419);
#514=AXIS2_PLACEMENT_3D('',#477,#420,#421);
#515=AXIS2_PLACEMENT_3D('',#478,#422,#423);
#516=AXIS2_PLACEMENT_3D('',#479,#424,#425);
#517=AXIS2_PLACEMENT_3D('',#480,#426,#427);
#518=PLANE('',#481);
#519=PLANE('',#492);
#520=PLANE('',#496);
#521=PLANE('',#502);
#522=PLANE('',#505);
#523=PLANE('',#507);
#524=PLANE('',#513);
#525=ADVANCED_FACE('',(#322,#323),#518,.T.);
#526=ADVANCED_FACE('',(#324,#325),#204,.T.);
#527=ADVANCED_FACE('',(#326,#327),#205,.T.);
#528=ADVANCED_FACE('',(#328,#329),#201,.T.);
#529=ADVANCED_FACE('',(#330,#331),#519,.T.);
#530=ADVANCED_FACE('',(#332,#333),#206,.F.);
#531=ADVANCED_FACE('',(#334,#335),#520,.T.);
#532=ADVANCED_FACE('',(#336,#337),#202,.F.);
#533=ADVANCED_FACE('',(#338,#339),#207,.F.);
#534=ADVANCED_FACE('',(#340,#341),#521,.T.);
#535=ADVANCED_FACE('',(#342,#343),#208,.F.);
#536=ADVANCED_FACE('',(#344,#345),#522,.T.);
#537=ADVANCED_FACE('',(#346,#347),#200,.T.);
#538=ADVANCED_FACE('',(#348),#523,.T.);
#539=ADVANCED_FACE('',(#349,#350),#209,.T.);
#540=ADVANCED_FACE('',(#351,#352),#203,.T.);
#541=ADVANCED_FACE('',(#353),#524,.T.);
#542=MANIFOLD_SOLID_BREP('Solid',#198);
#543=MANIFOLD_SOLID_BREP('Solid',#199);
#544=SHAPE_REPRESENTATION('RootProduct',(#517),#568);
#545=PRODUCT_DEFINITION_SHAPE('','',#551);
#546=PRODUCT_DEFINITION_SHAPE('','',#552);
#547=PRODUCT_DEFINITION_SHAPE('','',#553);
#548=PRODUCT_DEFINITION_SHAPE('',$,#16);
#549=PRODUCT_DEFINITION_SHAPE('',$,#17);
#550=PRODUCT_DEFINITION_CONTEXT('part definition',#558,'');
#551=PRODUCT_DEFINITION('','',#554,#550);
#552=PRODUCT_DEFINITION('','',#555,#550);
#553=PRODUCT_DEFINITION('','',#556,#550);
#554=PRODUCT_DEFINITION_FORMATION('','',#560);
#555=PRODUCT_DEFINITION_FORMATION('','',#561);
#556=PRODUCT_DEFINITION_FORMATION('','',#562);
#557=APPLICATION_PROTOCOL_DEFINITION('international standard',
'automotive_design',2003,#558);
#558=APPLICATION_CONTEXT(
'Core Data for Automotive Mechanical Design Process');
#559=PRODUCT_CONTEXT('part definition',#558,'');
#560=PRODUCT('Root','Root','',(#559));
#561=PRODUCT('303075','303075','',(#559));
#562=PRODUCT('ROTATIONSTEIL_0','ROTATIONSTEIL_0','',(#559));
#563=SHAPE_DEFINITION_REPRESENTATION(#545,#544);
#564=SHAPE_DEFINITION_REPRESENTATION(#546,#196);
#565=SHAPE_DEFINITION_REPRESENTATION(#547,#197);
#566=PRODUCT_RELATED_PRODUCT_CATEGORY('','',(#560,#561,#562));
#567=UNCERTAINTY_MEASURE_WITH_UNIT(LENGTH_MEASURE(0.001),#571,
'DISTANCE_ACCURACY_VALUE',
'Maximum model space distance between geometric entities at asserted c
onnectivities');
#568=(
GEOMETRIC_REPRESENTATION_CONTEXT(3)
GLOBAL_UNCERTAINTY_ASSIGNED_CONTEXT((#567))
GLOBAL_UNIT_ASSIGNED_CONTEXT((#571,#573,#576))
REPRESENTATION_CONTEXT('Default Context','3D')
);
#569=(
GEOMETRIC_REPRESENTATION_CONTEXT(3)
GLOBAL_UNCERTAINTY_ASSIGNED_CONTEXT((#567))
GLOBAL_UNIT_ASSIGNED_CONTEXT((#571,#573,#576))
REPRESENTATION_CONTEXT('Default Context','3D')
);
#570=(
GEOMETRIC_REPRESENTATION_CONTEXT(3)
GLOBAL_UNCERTAINTY_ASSIGNED_CONTEXT((#567))
GLOBAL_UNIT_ASSIGNED_CONTEXT((#571,#573,#576))
REPRESENTATION_CONTEXT('Default Context','3D')
);
#571=(
LENGTH_UNIT()
NAMED_UNIT(*)
SI_UNIT(.MILLI.,.METRE.)
);
#572=DIMENSIONAL_EXPONENTS(0.,0.,0.,0.,0.,0.,0.);
#573=(
CONVERSION_BASED_UNIT('degree',#575)
NAMED_UNIT(#572)
PLANE_ANGLE_UNIT()
);
#574=(
NAMED_UNIT(*)
PLANE_ANGLE_UNIT()
SI_UNIT($,.RADIAN.)
);
#575=PLANE_ANGLE_MEASURE_WITH_UNIT(PLANE_ANGLE_MEASURE(0.01745329252),#574);
#576=(
NAMED_UNIT(*)
SI_UNIT($,.STERADIAN.)
SOLID_ANGLE_UNIT()
);
ENDSEC;
END-ISO-10303-21;
