ISO-10303-21;
HEADER;
FILE_DESCRIPTION(( 'MV.11PC00.10.stp' ), '1');
FILE_NAME( 'MV.11PC00.10.stp', '2021-02-22T16:22:15',( 'Sopra'),('sopra-pneumatic.com'), 'SwSTEP 2.0','SolidWorks 2009','' );
FILE_SCHEMA(('CONFIG_CONTROL_DESIGN'));

ENDSEC;
/* file written by CATIA V5R21 */
DATA;
#5=PRODUCT('IR2972-10','IR2972-10','SILENCIEUX EN RESINE ACETALIQUE ENCLIQUETABLE \X2\00D8\X0\10',(#2)) ;
#1=APPLICATION_CONTEXT('configuration controlled 3D design of mechanical parts and assemblies') ;
#14=PRODUCT_DEFINITION('',' ',#6,#3) ;
#16=SECURITY_CLASSIFICATION(' ',' ',#15) ;
#15=SECURITY_CLASSIFICATION_LEVEL('unclassified') ;
#47=CARTESIAN_POINT(' ',(0.,0.,0.)) ;
#52=CARTESIAN_POINT('Axis2P3D Location',(1.33226762955E-015,0.,11.443375673)) ;
#57=CARTESIAN_POINT('Line Origine',(-1.09697820236,-0.599281923255,10.7216878365)) ;
#61=CARTESIAN_POINT('Vertex',(1.33226762955E-015,0.,11.443375673)) ;
#63=CARTESIAN_POINT('Vertex',(-2.19395640473,-1.19856384651,10.)) ;
#66=CARTESIAN_POINT('Axis2P3D Location',(1.33226762955E-015,0.,10.)) ;
#70=CARTESIAN_POINT('Vertex',(2.19395640473,1.19856384651,10.)) ;
#73=CARTESIAN_POINT('Line Origine',(1.09697820236,0.599281923255,10.7216878365)) ;
#84=CARTESIAN_POINT('Axis2P3D Location',(0.,0.,11.5)) ;
#89=CARTESIAN_POINT('Axis2P3D Location',(0.,0.,11.5)) ;
#93=CARTESIAN_POINT('Vertex',(-3.11626600093,5.70428665229,11.5)) ;
#95=CARTESIAN_POINT('Vertex',(5.0114009577E-016,-9.17330792166E-016,18.)) ;
#98=CARTESIAN_POINT('Axis2P3D Location',(0.,0.,11.5)) ;
#102=CARTESIAN_POINT('Vertex',(3.11626600093,-5.70428665229,11.5)) ;
#105=CARTESIAN_POINT('Axis2P3D Location',(0.,0.,11.5)) ;
#116=CARTESIAN_POINT('Axis2P3D Location',(0.,0.,11.5)) ;
#127=CARTESIAN_POINT('Axis2P3D Location',(0.,0.,9.)) ;
#132=CARTESIAN_POINT('Line Origine',(-3.11626600093,5.70428665229,3.75)) ;
#136=CARTESIAN_POINT('Vertex',(-3.11626600093,5.70428665229,0.)) ;
#139=CARTESIAN_POINT('Line Origine',(3.11626600093,-5.70428665229,3.75)) ;
#143=CARTESIAN_POINT('Vertex',(3.11626600093,-5.70428665229,0.)) ;
#146=CARTESIAN_POINT('Axis2P3D Location',(0.,0.,0.)) ;
#158=CARTESIAN_POINT('Axis2P3D Location',(0.,0.,0.)) ;
#170=CARTESIAN_POINT('Axis2P3D Location',(0.,0.,0.)) ;
#179=CARTESIAN_POINT('Axis2P3D Location',(1.11022302463E-015,-2.22044604925E-016,0.)) ;
#183=CARTESIAN_POINT('Vertex',(-2.19395640473,-1.19856384651,3.60822483003E-016)) ;
#185=CARTESIAN_POINT('Vertex',(2.19395640473,1.19856384651,3.60822483003E-016)) ;
#188=CARTESIAN_POINT('Axis2P3D Location',(1.44328993201E-015,-2.22044604925E-016,0.)) ;
#198=CARTESIAN_POINT('Axis2P3D Location',(1.33226762955E-015,0.,0.1)) ;
#203=CARTESIAN_POINT('Line Origine',(-2.19395640473,-1.19856384651,4.84499999994)) ;
#208=CARTESIAN_POINT('Axis2P3D Location',(1.33226762955E-015,0.,10.)) ;
#213=CARTESIAN_POINT('Line Origine',(2.19395640473,1.19856384651,4.84499999994)) ;
#242=CARTESIAN_POINT('Axis2P3D Location',(0.,0.,-12.5)) ;
#247=CARTESIAN_POINT('Line Origine',(1.19856384651,-2.19395640473,-12.5)) ;
#251=CARTESIAN_POINT('Vertex',(1.19856384651,-2.19395640473,0.)) ;
#253=CARTESIAN_POINT('Vertex',(1.19856384651,-2.19395640473,-25.)) ;
#256=CARTESIAN_POINT('Axis2P3D Location',(0.,0.,-25.)) ;
#260=CARTESIAN_POINT('Vertex',(-1.19856384651,2.19395640473,-25.)) ;
#263=CARTESIAN_POINT('Line Origine',(-1.19856384651,2.19395640473,-12.5)) ;
#267=CARTESIAN_POINT('Vertex',(-1.19856384651,2.19395640473,0.)) ;
#270=CARTESIAN_POINT('Axis2P3D Location',(0.,0.,0.)) ;
#282=CARTESIAN_POINT('Axis2P3D Location',(0.,0.,-25.)) ;
#287=CARTESIAN_POINT('Axis2P3D Location',(0.,0.,0.)) ;
#299=CARTESIAN_POINT('Axis2P3D Location',(0.,0.,-6.5)) ;
#304=CARTESIAN_POINT('Line Origine',(2.64882610079,-4.84864365444,-5.25)) ;
#308=CARTESIAN_POINT('Vertex',(2.42109896995,-4.43179193755,-6.5)) ;
#310=CARTESIAN_POINT('Vertex',(2.87655323163,-5.26549537134,-4.)) ;
#313=CARTESIAN_POINT('Axis2P3D Location',(0.,0.,-4.)) ;
#317=CARTESIAN_POINT('Vertex',(-2.87655323163,5.26549537134,-4.)) ;
#320=CARTESIAN_POINT('Line Origine',(-2.64882610079,4.84864365444,-5.25)) ;
#324=CARTESIAN_POINT('Vertex',(-2.42109896995,4.43179193755,-6.5)) ;
#327=CARTESIAN_POINT('Axis2P3D Location',(0.,0.,-6.5)) ;
#339=CARTESIAN_POINT('Axis2P3D Location',(0.,0.,-4.)) ;
#344=CARTESIAN_POINT('Axis2P3D Location',(0.,0.,-6.5)) ;
#356=CARTESIAN_POINT('Axis2P3D Location',(0.,0.,-12.5)) ;
#361=CARTESIAN_POINT('Line Origine',(3.11626600093,-5.70428665229,-2.)) ;
#365=CARTESIAN_POINT('Vertex',(3.11626600093,-5.70428665229,-4.)) ;
#367=CARTESIAN_POINT('Vertex',(3.11626600093,-5.70428665229,0.)) ;
#370=CARTESIAN_POINT('Axis2P3D Location',(0.,0.,0.)) ;
#374=CARTESIAN_POINT('Vertex',(-3.11626600093,5.70428665229,0.)) ;
#377=CARTESIAN_POINT('Line Origine',(-3.11626600093,5.70428665229,-2.)) ;
#381=CARTESIAN_POINT('Vertex',(-3.11626600093,5.70428665229,-4.)) ;
#384=CARTESIAN_POINT('Axis2P3D Location',(0.,0.,-4.)) ;
#396=CARTESIAN_POINT('Axis2P3D Location',(0.,0.,0.)) ;
#401=CARTESIAN_POINT('Axis2P3D Location',(0.,0.,-4.)) ;
#413=CARTESIAN_POINT('Axis2P3D Location',(0.,6.5,-4.)) ;
#427=CARTESIAN_POINT('Axis2P3D Location',(0.,2.5,0.)) ;
#441=CARTESIAN_POINT('Axis2P3D Location',(0.,0.,-12.5)) ;
#446=CARTESIAN_POINT('Line Origine',(2.42109896995,-4.43179193755,-15.75)) ;
#450=CARTESIAN_POINT('Vertex',(2.42109896995,-4.43179193755,-24.)) ;
#453=CARTESIAN_POINT('Line Origine',(-2.42109896995,4.43179193755,-15.75)) ;
#457=CARTESIAN_POINT('Vertex',(-2.42109896995,4.43179193755,-24.)) ;
#460=CARTESIAN_POINT('Axis2P3D Location',(0.,0.,-24.)) ;
#472=CARTESIAN_POINT('Axis2P3D Location',(0.,0.,-24.)) ;
#484=CARTESIAN_POINT('Axis2P3D Location',(0.,5.05,-25.)) ;
#489=CARTESIAN_POINT('Axis2P3D Location',(7.60502771868E-015,-1.24344978758E-014,-25.)) ;
#493=CARTESIAN_POINT('Vertex',(-2.14430250618,3.9251194092,-25.)) ;
#495=CARTESIAN_POINT('Vertex',(2.14430168847,-3.92511985592,-25.)) ;
#498=CARTESIAN_POINT('Axis2P3D Location',(1.13242748512E-014,-4.17443857259E-014,-25.)) ;
#512=CARTESIAN_POINT('Axis2P3D Location',(2.77567665321E-013,-2.96267245507E-013,-32.7468565782)) ;
#517=CARTESIAN_POINT('Line Origine',(2.28270067998,-4.17845570511,-24.5)) ;
#522=CARTESIAN_POINT('Line Origine',(-2.28270073807,4.17845567337,-24.5)) ;
#534=CARTESIAN_POINT('Axis2P3D Location',(-4.38491373584E-013,-4.38907358228E-013,-32.7468565782)) ;
#53=DIRECTION('Axis2P3D Direction',(0.,0.,-1.)) ;
#54=DIRECTION('Axis2P3D XDirection',(0.87758256189,0.479425538604,0.)) ;
#58=DIRECTION('Vector Direction',(-0.760008792515,-0.415194695654,-0.5)) ;
#67=DIRECTION('Axis2P3D Direction',(0.,0.,-1.)) ;
#74=DIRECTION('Vector Direction',(0.760008792515,0.415194695654,-0.5)) ;
#85=DIRECTION('Axis2P3D Direction',(0.,0.,1.)) ;
#86=DIRECTION('Axis2P3D XDirection',(-0.479425538604,0.87758256189,0.)) ;
#90=DIRECTION('Axis2P3D Direction',(0.87758256189,0.479425538604,-0.)) ;
#99=DIRECTION('Axis2P3D Direction',(-0.87758256189,-0.479425538604,0.)) ;
#106=DIRECTION('Axis2P3D Direction',(0.,0.,1.)) ;
#117=DIRECTION('Axis2P3D Direction',(0.,0.,1.)) ;
#128=DIRECTION('Axis2P3D Direction',(0.,0.,1.)) ;
#129=DIRECTION('Axis2P3D XDirection',(-0.479425538604,0.87758256189,0.)) ;
#133=DIRECTION('Vector Direction',(0.,0.,1.)) ;
#140=DIRECTION('Vector Direction',(0.,0.,1.)) ;
#147=DIRECTION('Axis2P3D Direction',(0.,0.,1.)) ;
#159=DIRECTION('Axis2P3D Direction',(0.,0.,1.)) ;
#171=DIRECTION('Axis2P3D Direction',(0.,0.,1.)) ;
#172=DIRECTION('Axis2P3D XDirection',(1.,0.,0.)) ;
#180=DIRECTION('Axis2P3D Direction',(0.,0.,1.)) ;
#189=DIRECTION('Axis2P3D Direction',(0.,0.,1.)) ;
#199=DIRECTION('Axis2P3D Direction',(0.,-0.,1.)) ;
#200=DIRECTION('Axis2P3D XDirection',(0.87758256189,0.479425538604,0.)) ;
#204=DIRECTION('Vector Direction',(0.,0.,1.)) ;
#209=DIRECTION('Axis2P3D Direction',(0.,-0.,1.)) ;
#214=DIRECTION('Vector Direction',(0.,0.,1.)) ;
#243=DIRECTION('Axis2P3D Direction',(0.,0.,1.)) ;
#244=DIRECTION('Axis2P3D XDirection',(-0.479425538604,0.87758256189,0.)) ;
#248=DIRECTION('Vector Direction',(0.,0.,1.)) ;
#257=DIRECTION('Axis2P3D Direction',(0.,0.,1.)) ;
#264=DIRECTION('Vector Direction',(0.,0.,1.)) ;
#271=DIRECTION('Axis2P3D Direction',(0.,0.,1.)) ;
#283=DIRECTION('Axis2P3D Direction',(0.,0.,1.)) ;
#288=DIRECTION('Axis2P3D Direction',(0.,0.,1.)) ;
#300=DIRECTION('Axis2P3D Direction',(0.,0.,1.)) ;
#301=DIRECTION('Axis2P3D XDirection',(-0.479425538604,0.87758256189,0.)) ;
#305=DIRECTION('Vector Direction',(0.170300466209,-0.311732912397,0.934783580588)) ;
#314=DIRECTION('Axis2P3D Direction',(0.,0.,1.)) ;
#321=DIRECTION('Vector Direction',(-0.170300466209,0.311732912397,0.934783580588)) ;
#328=DIRECTION('Axis2P3D Direction',(0.,0.,1.)) ;
#340=DIRECTION('Axis2P3D Direction',(0.,0.,1.)) ;
#345=DIRECTION('Axis2P3D Direction',(0.,0.,1.)) ;
#357=DIRECTION('Axis2P3D Direction',(0.,0.,1.)) ;
#358=DIRECTION('Axis2P3D XDirection',(-0.479425538604,0.87758256189,0.)) ;
#362=DIRECTION('Vector Direction',(0.,0.,1.)) ;
#371=DIRECTION('Axis2P3D Direction',(0.,0.,1.)) ;
#378=DIRECTION('Vector Direction',(0.,0.,1.)) ;
#385=DIRECTION('Axis2P3D Direction',(0.,0.,1.)) ;
#397=DIRECTION('Axis2P3D Direction',(0.,0.,1.)) ;
#402=DIRECTION('Axis2P3D Direction',(0.,0.,1.)) ;
#414=DIRECTION('Axis2P3D Direction',(0.,0.,1.)) ;
#415=DIRECTION('Axis2P3D XDirection',(1.,0.,0.)) ;
#428=DIRECTION('Axis2P3D Direction',(0.,0.,1.)) ;
#429=DIRECTION('Axis2P3D XDirection',(1.,0.,0.)) ;
#442=DIRECTION('Axis2P3D Direction',(0.,0.,1.)) ;
#443=DIRECTION('Axis2P3D XDirection',(-0.479425538604,0.87758256189,0.)) ;
#447=DIRECTION('Vector Direction',(0.,0.,1.)) ;
#454=DIRECTION('Vector Direction',(0.,0.,1.)) ;
#461=DIRECTION('Axis2P3D Direction',(0.,0.,1.)) ;
#473=DIRECTION('Axis2P3D Direction',(0.,0.,1.)) ;
#485=DIRECTION('Axis2P3D Direction',(0.,0.,1.)) ;
#486=DIRECTION('Axis2P3D XDirection',(1.,0.,0.)) ;
#490=DIRECTION('Axis2P3D Direction',(0.,0.,1.)) ;
#499=DIRECTION('Axis2P3D Direction',(0.,0.,1.)) ;
#513=DIRECTION('Axis2P3D Direction',(-3.15303338994E-014,3.39728245535E-014,1.)) ;
#514=DIRECTION('Axis2P3D XDirection',(0.413842918311,-0.910348306399,4.39584255219E-014)) ;
#518=DIRECTION('Vector Direction',(0.239712763203,-0.438791284277,0.866025403784)) ;
#523=DIRECTION('Vector Direction',(-0.239712769302,0.438791280945,0.866025403784)) ;
#535=DIRECTION('Axis2P3D Direction',(5.01820807131E-014,5.02931030155E-014,1.)) ;
#536=DIRECTION('Axis2P3D XDirection',(-0.479425538604,0.87758256189,-2.01165676117E-014)) ;
#48=AXIS2_PLACEMENT_3D(' ',#47,$,$) ;
#55=AXIS2_PLACEMENT_3D('Cone Axis2P3D',#52,#53,#54) ;
#68=AXIS2_PLACEMENT_3D('Circle Axis2P3D',#66,#67,$) ;
#87=AXIS2_PLACEMENT_3D('Sphere Axis2P3D',#84,#85,#86) ;
#91=AXIS2_PLACEMENT_3D('Circle Axis2P3D',#89,#90,$) ;
#100=AXIS2_PLACEMENT_3D('Circle Axis2P3D',#98,#99,$) ;
#107=AXIS2_PLACEMENT_3D('Circle Axis2P3D',#105,#106,$) ;
#118=AXIS2_PLACEMENT_3D('Circle Axis2P3D',#116,#117,$) ;
#130=AXIS2_PLACEMENT_3D('Cylinder Axis2P3D',#127,#128,#129) ;
#148=AXIS2_PLACEMENT_3D('Circle Axis2P3D',#146,#147,$) ;
#160=AXIS2_PLACEMENT_3D('Circle Axis2P3D',#158,#159,$) ;
#173=AXIS2_PLACEMENT_3D('Plane Axis2P3D',#170,#171,#172) ;
#181=AXIS2_PLACEMENT_3D('Circle Axis2P3D',#179,#180,$) ;
#190=AXIS2_PLACEMENT_3D('Circle Axis2P3D',#188,#189,$) ;
#201=AXIS2_PLACEMENT_3D('Cylinder Axis2P3D',#198,#199,#200) ;
#210=AXIS2_PLACEMENT_3D('Circle Axis2P3D',#208,#209,$) ;
#245=AXIS2_PLACEMENT_3D('Cylinder Axis2P3D',#242,#243,#244) ;
#258=AXIS2_PLACEMENT_3D('Circle Axis2P3D',#256,#257,$) ;
#272=AXIS2_PLACEMENT_3D('Circle Axis2P3D',#270,#271,$) ;
#284=AXIS2_PLACEMENT_3D('Circle Axis2P3D',#282,#283,$) ;
#289=AXIS2_PLACEMENT_3D('Circle Axis2P3D',#287,#288,$) ;
#302=AXIS2_PLACEMENT_3D('Cone Axis2P3D',#299,#300,#301) ;
#315=AXIS2_PLACEMENT_3D('Circle Axis2P3D',#313,#314,$) ;
#329=AXIS2_PLACEMENT_3D('Circle Axis2P3D',#327,#328,$) ;
#341=AXIS2_PLACEMENT_3D('Circle Axis2P3D',#339,#340,$) ;
#346=AXIS2_PLACEMENT_3D('Circle Axis2P3D',#344,#345,$) ;
#359=AXIS2_PLACEMENT_3D('Cylinder Axis2P3D',#356,#357,#358) ;
#372=AXIS2_PLACEMENT_3D('Circle Axis2P3D',#370,#371,$) ;
#386=AXIS2_PLACEMENT_3D('Circle Axis2P3D',#384,#385,$) ;
#398=AXIS2_PLACEMENT_3D('Circle Axis2P3D',#396,#397,$) ;
#403=AXIS2_PLACEMENT_3D('Circle Axis2P3D',#401,#402,$) ;
#416=AXIS2_PLACEMENT_3D('Plane Axis2P3D',#413,#414,#415) ;
#430=AXIS2_PLACEMENT_3D('Plane Axis2P3D',#427,#428,#429) ;
#444=AXIS2_PLACEMENT_3D('Cylinder Axis2P3D',#441,#442,#443) ;
#462=AXIS2_PLACEMENT_3D('Circle Axis2P3D',#460,#461,$) ;
#474=AXIS2_PLACEMENT_3D('Circle Axis2P3D',#472,#473,$) ;
#487=AXIS2_PLACEMENT_3D('Plane Axis2P3D',#484,#485,#486) ;
#491=AXIS2_PLACEMENT_3D('Circle Axis2P3D',#489,#490,$) ;
#500=AXIS2_PLACEMENT_3D('Circle Axis2P3D',#498,#499,$) ;
#515=AXIS2_PLACEMENT_3D('Cone Axis2P3D',#512,#513,#514) ;
#537=AXIS2_PLACEMENT_3D('Cone Axis2P3D',#534,#535,#536) ;
#40=PRODUCT_DEFINITION_SHAPE(' ',' ',#14) ;
#31=APPROVAL_PERSON_ORGANIZATION(#25,#21,#19) ;
#25=PERSON_AND_ORGANIZATION(#22,#23) ;
#22=PERSON(' ',' ',' ',$,$,$) ;
#23=ORGANIZATION(' ',' ',' ') ;
#21=APPROVAL(#20,' ') ;
#20=APPROVAL_STATUS('not_yet_approved') ;
#19=APPROVAL_ROLE('APPROVER') ;
#13=DATE_AND_TIME(#11,#12) ;
#12=LOCAL_TIME(12,48,29.,#10) ;
#10=COORDINATED_UNIVERSAL_TIME_OFFSET(0,0,.AHEAD.) ;
#79=ORIENTED_EDGE('',*,*,#65,.T.) ;
#80=ORIENTED_EDGE('',*,*,#72,.F.) ;
#81=ORIENTED_EDGE('',*,*,#77,.F.) ;
#111=ORIENTED_EDGE('',*,*,#97,.T.) ;
#112=ORIENTED_EDGE('',*,*,#104,.F.) ;
#113=ORIENTED_EDGE('',*,*,#109,.T.) ;
#122=ORIENTED_EDGE('',*,*,#104,.T.) ;
#123=ORIENTED_EDGE('',*,*,#97,.F.) ;
#124=ORIENTED_EDGE('',*,*,#120,.T.) ;
#152=ORIENTED_EDGE('',*,*,#138,.T.) ;
#153=ORIENTED_EDGE('',*,*,#109,.F.) ;
#154=ORIENTED_EDGE('',*,*,#145,.F.) ;
#155=ORIENTED_EDGE('',*,*,#150,.T.) ;
#164=ORIENTED_EDGE('',*,*,#145,.T.) ;
#165=ORIENTED_EDGE('',*,*,#120,.F.) ;
#166=ORIENTED_EDGE('',*,*,#138,.F.) ;
#167=ORIENTED_EDGE('',*,*,#162,.T.) ;
#176=ORIENTED_EDGE('',*,*,#150,.F.) ;
#177=ORIENTED_EDGE('',*,*,#162,.F.) ;
#194=ORIENTED_EDGE('',*,*,#187,.T.) ;
#195=ORIENTED_EDGE('',*,*,#192,.T.) ;
#219=ORIENTED_EDGE('',*,*,#187,.F.) ;
#220=ORIENTED_EDGE('',*,*,#207,.F.) ;
#221=ORIENTED_EDGE('',*,*,#212,.T.) ;
#222=ORIENTED_EDGE('',*,*,#217,.T.) ;
#226=ORIENTED_EDGE('',*,*,#192,.F.) ;
#227=ORIENTED_EDGE('',*,*,#217,.F.) ;
#228=ORIENTED_EDGE('',*,*,#72,.T.) ;
#229=ORIENTED_EDGE('',*,*,#207,.T.) ;
#233=ORIENTED_EDGE('',*,*,#77,.T.) ;
#234=ORIENTED_EDGE('',*,*,#212,.F.) ;
#235=ORIENTED_EDGE('',*,*,#65,.F.) ;
#276=ORIENTED_EDGE('',*,*,#255,.T.) ;
#277=ORIENTED_EDGE('',*,*,#262,.F.) ;
#278=ORIENTED_EDGE('',*,*,#269,.F.) ;
#279=ORIENTED_EDGE('',*,*,#274,.T.) ;
#293=ORIENTED_EDGE('',*,*,#269,.T.) ;
#294=ORIENTED_EDGE('',*,*,#286,.F.) ;
#295=ORIENTED_EDGE('',*,*,#255,.F.) ;
#296=ORIENTED_EDGE('',*,*,#291,.T.) ;
#333=ORIENTED_EDGE('',*,*,#312,.T.) ;
#334=ORIENTED_EDGE('',*,*,#319,.F.) ;
#335=ORIENTED_EDGE('',*,*,#326,.F.) ;
#336=ORIENTED_EDGE('',*,*,#331,.T.) ;
#350=ORIENTED_EDGE('',*,*,#326,.T.) ;
#351=ORIENTED_EDGE('',*,*,#343,.F.) ;
#352=ORIENTED_EDGE('',*,*,#312,.F.) ;
#353=ORIENTED_EDGE('',*,*,#348,.T.) ;
#390=ORIENTED_EDGE('',*,*,#369,.T.) ;
#391=ORIENTED_EDGE('',*,*,#376,.F.) ;
#392=ORIENTED_EDGE('',*,*,#383,.F.) ;
#393=ORIENTED_EDGE('',*,*,#388,.T.) ;
#407=ORIENTED_EDGE('',*,*,#383,.T.) ;
#408=ORIENTED_EDGE('',*,*,#400,.F.) ;
#409=ORIENTED_EDGE('',*,*,#369,.F.) ;
#410=ORIENTED_EDGE('',*,*,#405,.T.) ;
#419=ORIENTED_EDGE('',*,*,#388,.F.) ;
#420=ORIENTED_EDGE('',*,*,#405,.F.) ;
#423=ORIENTED_EDGE('',*,*,#343,.T.) ;
#424=ORIENTED_EDGE('',*,*,#319,.T.) ;
#433=ORIENTED_EDGE('',*,*,#400,.T.) ;
#434=ORIENTED_EDGE('',*,*,#376,.T.) ;
#437=ORIENTED_EDGE('',*,*,#274,.F.) ;
#438=ORIENTED_EDGE('',*,*,#291,.F.) ;
#466=ORIENTED_EDGE('',*,*,#452,.T.) ;
#467=ORIENTED_EDGE('',*,*,#331,.F.) ;
#468=ORIENTED_EDGE('',*,*,#459,.F.) ;
#469=ORIENTED_EDGE('',*,*,#464,.T.) ;
#478=ORIENTED_EDGE('',*,*,#459,.T.) ;
#479=ORIENTED_EDGE('',*,*,#348,.F.) ;
#480=ORIENTED_EDGE('',*,*,#452,.F.) ;
#481=ORIENTED_EDGE('',*,*,#476,.T.) ;
#504=ORIENTED_EDGE('',*,*,#497,.F.) ;
#505=ORIENTED_EDGE('',*,*,#502,.F.) ;
#508=ORIENTED_EDGE('',*,*,#286,.T.) ;
#509=ORIENTED_EDGE('',*,*,#262,.T.) ;
#528=ORIENTED_EDGE('',*,*,#521,.T.) ;
#529=ORIENTED_EDGE('',*,*,#502,.T.) ;
#530=ORIENTED_EDGE('',*,*,#526,.F.) ;
#531=ORIENTED_EDGE('',*,*,#476,.F.) ;
#540=ORIENTED_EDGE('',*,*,#526,.T.) ;
#541=ORIENTED_EDGE('',*,*,#497,.T.) ;
#542=ORIENTED_EDGE('',*,*,#521,.F.) ;
#543=ORIENTED_EDGE('',*,*,#464,.F.) ;
#196=FACE_BOUND('',#193,.T.) ;
#425=FACE_BOUND('',#422,.T.) ;
#439=FACE_BOUND('',#436,.T.) ;
#510=FACE_BOUND('',#507,.T.) ;
#51=CLOSED_SHELL('Closed Shell',(#83,#115,#126,#157,#169,#197,#224,#231,#237)) ;
#241=CLOSED_SHELL('Closed Shell',(#281,#298,#338,#355,#395,#412,#426,#440,#471,#483,#511,#533,#545)) ;
#59=VECTOR('Line Direction',#58,1.) ;
#75=VECTOR('Line Direction',#74,1.) ;
#134=VECTOR('Line Direction',#133,1.) ;
#141=VECTOR('Line Direction',#140,1.) ;
#205=VECTOR('Line Direction',#204,1.) ;
#215=VECTOR('Line Direction',#214,1.) ;
#249=VECTOR('Line Direction',#248,1.) ;
#265=VECTOR('Line Direction',#264,1.) ;
#306=VECTOR('Line Direction',#305,1.) ;
#322=VECTOR('Line Direction',#321,1.) ;
#363=VECTOR('Line Direction',#362,1.) ;
#379=VECTOR('Line Direction',#378,1.) ;
#448=VECTOR('Line Direction',#447,1.) ;
#455=VECTOR('Line Direction',#454,1.) ;
#519=VECTOR('Line Direction',#518,1.) ;
#524=VECTOR('Line Direction',#523,1.) ;
#239=ADVANCED_BREP_SHAPE_REPRESENTATION('NONE',(#238,#546),#46) ;
#49=SHAPE_REPRESENTATION(' ',(#48),#46) ;
#83=ADVANCED_FACE('Corps principal',(#82),#56,.F.) ;
#115=ADVANCED_FACE('Corps principal',(#114),#88,.T.) ;
#126=ADVANCED_FACE('Corps principal',(#125),#88,.T.) ;
#157=ADVANCED_FACE('Corps principal',(#156),#131,.T.) ;
#169=ADVANCED_FACE('Corps principal',(#168),#131,.T.) ;
#197=ADVANCED_FACE('Corps principal',(#178,#196),#174,.F.) ;
#224=ADVANCED_FACE('Corps principal',(#223),#202,.F.) ;
#231=ADVANCED_FACE('Corps principal',(#230),#202,.F.) ;
#237=ADVANCED_FACE('Corps principal',(#236),#56,.F.) ;
#281=ADVANCED_FACE('Corps de pi\X2\00E8\X0\ce.2',(#280),#246,.F.) ;
#298=ADVANCED_FACE('Corps de pi\X2\00E8\X0\ce.2',(#297),#246,.F.) ;
#338=ADVANCED_FACE('Corps de pi\X2\00E8\X0\ce.2',(#337),#303,.T.) ;
#355=ADVANCED_FACE('Corps de pi\X2\00E8\X0\ce.2',(#354),#303,.T.) ;
#395=ADVANCED_FACE('Corps de pi\X2\00E8\X0\ce.2',(#394),#360,.T.) ;
#412=ADVANCED_FACE('Corps de pi\X2\00E8\X0\ce.2',(#411),#360,.T.) ;
#426=ADVANCED_FACE('Corps de pi\X2\00E8\X0\ce.2',(#421,#425),#417,.F.) ;
#440=ADVANCED_FACE('Corps de pi\X2\00E8\X0\ce.2',(#435,#439),#431,.T.) ;
#471=ADVANCED_FACE('Corps de pi\X2\00E8\X0\ce.2',(#470),#445,.T.) ;
#483=ADVANCED_FACE('Corps de pi\X2\00E8\X0\ce.2',(#482),#445,.T.) ;
#511=ADVANCED_FACE('Corps de pi\X2\00E8\X0\ce.2',(#506,#510),#488,.F.) ;
#533=ADVANCED_FACE('Corps de pi\X2\00E8\X0\ce.2',(#532),#516,.T.) ;
#545=ADVANCED_FACE('Corps de pi\X2\00E8\X0\ce.2',(#544),#538,.T.) ;
#4=APPLICATION_PROTOCOL_DEFINITION('international standard','config_control_design',1994,#1) ;
#32=APPROVAL_DATE_TIME(#13,#21) ;
#238=MANIFOLD_SOLID_BREP('Corps principal',#51) ;
#546=MANIFOLD_SOLID_BREP('Corps de pi\X2\00E8\X0\ce.2',#241) ;
#11=CALENDAR_DATE(2019,10,1) ;
#30=CC_DESIGN_APPROVAL(#21,(#16,#6,#14)) ;
#18=CC_DESIGN_DATE_AND_TIME_ASSIGNMENT(#13,#17,(#16)) ;
#29=CC_DESIGN_DATE_AND_TIME_ASSIGNMENT(#13,#28,(#14)) ;
#17=DATE_TIME_ROLE('classification_date') ;
#28=DATE_TIME_ROLE('creation_date') ;
#27=CC_DESIGN_PERSON_AND_ORGANIZATION_ASSIGNMENT(#25,#26,(#16)) ;
#33=CC_DESIGN_PERSON_AND_ORGANIZATION_ASSIGNMENT(#25,#34,(#6)) ;
#35=CC_DESIGN_PERSON_AND_ORGANIZATION_ASSIGNMENT(#25,#36,(#6,#14)) ;
#37=CC_DESIGN_PERSON_AND_ORGANIZATION_ASSIGNMENT(#25,#38,(#5)) ;
#26=PERSON_AND_ORGANIZATION_ROLE('classification_officer') ;
#34=PERSON_AND_ORGANIZATION_ROLE('design_supplier') ;
#36=PERSON_AND_ORGANIZATION_ROLE('creator') ;
#38=PERSON_AND_ORGANIZATION_ROLE('design_owner') ;
#39=CC_DESIGN_SECURITY_CLASSIFICATION(#16,(#6)) ;
#69=CIRCLE('generated circle',#68,2.5) ;
#92=CIRCLE('generated circle',#91,6.5) ;
#101=CIRCLE('generated circle',#100,6.5) ;
#108=CIRCLE('generated circle',#107,6.5) ;
#119=CIRCLE('generated circle',#118,6.5) ;
#149=CIRCLE('generated circle',#148,6.5) ;
#161=CIRCLE('generated circle',#160,6.5) ;
#182=CIRCLE('generated circle',#181,2.5) ;
#191=CIRCLE('generated circle',#190,2.5) ;
#211=CIRCLE('generated circle',#210,2.5) ;
#259=CIRCLE('generated circle',#258,2.5) ;
#273=CIRCLE('generated circle',#272,2.5) ;
#285=CIRCLE('generated circle',#284,2.5) ;
#290=CIRCLE('generated circle',#289,2.5) ;
#316=CIRCLE('generated circle',#315,6.) ;
#330=CIRCLE('generated circle',#329,5.05) ;
#342=CIRCLE('generated circle',#341,6.) ;
#347=CIRCLE('generated circle',#346,5.05) ;
#373=CIRCLE('generated circle',#372,6.5) ;
#387=CIRCLE('generated circle',#386,6.5) ;
#399=CIRCLE('generated circle',#398,6.5) ;
#404=CIRCLE('generated circle',#403,6.5) ;
#463=CIRCLE('generated circle',#462,5.05) ;
#475=CIRCLE('generated circle',#474,5.05) ;
#492=CIRCLE('generated circle',#491,4.47264973081) ;
#501=CIRCLE('generated circle',#500,4.47264973081) ;
#56=CONICAL_SURFACE('Cone',#55,0.,1.0471975512) ;
#303=CONICAL_SURFACE('Cone',#302,5.05,0.363147009946) ;
#516=CONICAL_SURFACE('Cone',#515,0.,0.523598775598) ;
#538=CONICAL_SURFACE('Cone',#537,0.,0.523598775598) ;
#240=SHAPE_REPRESENTATION_RELATIONSHIP(' ',' ',#49,#239) ;
#131=CYLINDRICAL_SURFACE('generated cylinder',#130,6.5) ;
#202=CYLINDRICAL_SURFACE('generated cylinder',#201,2.5) ;
#246=CYLINDRICAL_SURFACE('generated cylinder',#245,2.5) ;
#360=CYLINDRICAL_SURFACE('generated cylinder',#359,6.5) ;
#445=CYLINDRICAL_SURFACE('generated cylinder',#444,5.05) ;
#3=DESIGN_CONTEXT(' ',#1,'design') ;
#65=EDGE_CURVE('',#62,#64,#60,.T.) ;
#72=EDGE_CURVE('',#71,#64,#69,.F.) ;
#77=EDGE_CURVE('',#62,#71,#76,.T.) ;
#97=EDGE_CURVE('',#94,#96,#92,.T.) ;
#104=EDGE_CURVE('',#103,#96,#101,.T.) ;
#109=EDGE_CURVE('',#103,#94,#108,.T.) ;
#120=EDGE_CURVE('',#94,#103,#119,.T.) ;
#138=EDGE_CURVE('',#137,#94,#135,.T.) ;
#145=EDGE_CURVE('',#144,#103,#142,.T.) ;
#150=EDGE_CURVE('',#144,#137,#149,.T.) ;
#162=EDGE_CURVE('',#137,#144,#161,.T.) ;
#187=EDGE_CURVE('',#184,#186,#182,.T.) ;
#192=EDGE_CURVE('',#186,#184,#191,.T.) ;
#207=EDGE_CURVE('',#64,#184,#206,.F.) ;
#212=EDGE_CURVE('',#64,#71,#211,.T.) ;
#217=EDGE_CURVE('',#71,#186,#216,.F.) ;
#255=EDGE_CURVE('',#252,#254,#250,.F.) ;
#262=EDGE_CURVE('',#261,#254,#259,.T.) ;
#269=EDGE_CURVE('',#268,#261,#266,.F.) ;
#274=EDGE_CURVE('',#268,#252,#273,.T.) ;
#286=EDGE_CURVE('',#254,#261,#285,.T.) ;
#291=EDGE_CURVE('',#252,#268,#290,.T.) ;
#312=EDGE_CURVE('',#309,#311,#307,.T.) ;
#319=EDGE_CURVE('',#318,#311,#316,.T.) ;
#326=EDGE_CURVE('',#325,#318,#323,.T.) ;
#331=EDGE_CURVE('',#325,#309,#330,.T.) ;
#343=EDGE_CURVE('',#311,#318,#342,.T.) ;
#348=EDGE_CURVE('',#309,#325,#347,.T.) ;
#369=EDGE_CURVE('',#366,#368,#364,.T.) ;
#376=EDGE_CURVE('',#375,#368,#373,.T.) ;
#383=EDGE_CURVE('',#382,#375,#380,.T.) ;
#388=EDGE_CURVE('',#382,#366,#387,.T.) ;
#400=EDGE_CURVE('',#368,#375,#399,.T.) ;
#405=EDGE_CURVE('',#366,#382,#404,.T.) ;
#452=EDGE_CURVE('',#451,#309,#449,.T.) ;
#459=EDGE_CURVE('',#458,#325,#456,.T.) ;
#464=EDGE_CURVE('',#458,#451,#463,.T.) ;
#476=EDGE_CURVE('',#451,#458,#475,.T.) ;
#497=EDGE_CURVE('',#494,#496,#492,.T.) ;
#502=EDGE_CURVE('',#496,#494,#501,.T.) ;
#521=EDGE_CURVE('',#451,#496,#520,.F.) ;
#526=EDGE_CURVE('',#458,#494,#525,.F.) ;
#78=EDGE_LOOP('',(#79,#80,#81)) ;
#110=EDGE_LOOP('',(#111,#112,#113)) ;
#121=EDGE_LOOP('',(#122,#123,#124)) ;
#151=EDGE_LOOP('',(#152,#153,#154,#155)) ;
#163=EDGE_LOOP('',(#164,#165,#166,#167)) ;
#175=EDGE_LOOP('',(#176,#177)) ;
#193=EDGE_LOOP('',(#194,#195)) ;
#218=EDGE_LOOP('',(#219,#220,#221,#222)) ;
#225=EDGE_LOOP('',(#226,#227,#228,#229)) ;
#232=EDGE_LOOP('',(#233,#234,#235)) ;
#275=EDGE_LOOP('',(#276,#277,#278,#279)) ;
#292=EDGE_LOOP('',(#293,#294,#295,#296)) ;
#332=EDGE_LOOP('',(#333,#334,#335,#336)) ;
#349=EDGE_LOOP('',(#350,#351,#352,#353)) ;
#389=EDGE_LOOP('',(#390,#391,#392,#393)) ;
#406=EDGE_LOOP('',(#407,#408,#409,#410)) ;
#418=EDGE_LOOP('',(#419,#420)) ;
#422=EDGE_LOOP('',(#423,#424)) ;
#432=EDGE_LOOP('',(#433,#434)) ;
#436=EDGE_LOOP('',(#437,#438)) ;
#465=EDGE_LOOP('',(#466,#467,#468,#469)) ;
#477=EDGE_LOOP('',(#478,#479,#480,#481)) ;
#503=EDGE_LOOP('',(#504,#505)) ;
#507=EDGE_LOOP('',(#508,#509)) ;
#527=EDGE_LOOP('',(#528,#529,#530,#531)) ;
#539=EDGE_LOOP('',(#540,#541,#542,#543)) ;
#82=FACE_OUTER_BOUND('',#78,.T.) ;
#114=FACE_OUTER_BOUND('',#110,.T.) ;
#125=FACE_OUTER_BOUND('',#121,.T.) ;
#156=FACE_OUTER_BOUND('',#151,.T.) ;
#168=FACE_OUTER_BOUND('',#163,.T.) ;
#178=FACE_OUTER_BOUND('',#175,.T.) ;
#223=FACE_OUTER_BOUND('',#218,.T.) ;
#230=FACE_OUTER_BOUND('',#225,.T.) ;
#236=FACE_OUTER_BOUND('',#232,.T.) ;
#280=FACE_OUTER_BOUND('',#275,.T.) ;
#297=FACE_OUTER_BOUND('',#292,.T.) ;
#337=FACE_OUTER_BOUND('',#332,.T.) ;
#354=FACE_OUTER_BOUND('',#349,.T.) ;
#394=FACE_OUTER_BOUND('',#389,.T.) ;
#411=FACE_OUTER_BOUND('',#406,.T.) ;
#421=FACE_OUTER_BOUND('',#418,.T.) ;
#435=FACE_OUTER_BOUND('',#432,.T.) ;
#470=FACE_OUTER_BOUND('',#465,.T.) ;
#482=FACE_OUTER_BOUND('',#477,.T.) ;
#506=FACE_OUTER_BOUND('',#503,.T.) ;
#532=FACE_OUTER_BOUND('',#527,.T.) ;
#544=FACE_OUTER_BOUND('',#539,.T.) ;
#45=UNCERTAINTY_MEASURE_WITH_UNIT(LENGTH_MEASURE(0.005),#41,'distance_accuracy_value','CONFUSED CURVE UNCERTAINTY') ;
#60=LINE('Line',#57,#59) ;
#76=LINE('Line',#73,#75) ;
#135=LINE('Line',#132,#134) ;
#142=LINE('Line',#139,#141) ;
#206=LINE('Line',#203,#205) ;
#216=LINE('Line',#213,#215) ;
#250=LINE('Line',#247,#249) ;
#266=LINE('Line',#263,#265) ;
#307=LINE('Line',#304,#306) ;
#323=LINE('Line',#320,#322) ;
#364=LINE('Line',#361,#363) ;
#380=LINE('Line',#377,#379) ;
#449=LINE('Line',#446,#448) ;
#456=LINE('Line',#453,#455) ;
#520=LINE('Line',#517,#519) ;
#525=LINE('Line',#522,#524) ;
#2=MECHANICAL_CONTEXT(' ',#1,'mechanical') ;
#24=PERSONAL_ADDRESS(' ',' ',' ',' ',' ',' ',' ',' ',' ',' ',' ',' ',(#22),' ') ;
#174=PLANE('',#173) ;
#417=PLANE('',#416) ;
#431=PLANE('',#430) ;
#488=PLANE('',#487) ;
#43=PLANE_ANGLE_MEASURE_WITH_UNIT(PLANE_ANGLE_MEASURE(0.0174532925199),#42) ;
#7=PRODUCT_CATEGORY('part',$) ;
#9=PRODUCT_CATEGORY_RELATIONSHIP(' ',' ',#7,#8) ;
#6=PRODUCT_DEFINITION_FORMATION_WITH_SPECIFIED_SOURCE('',' ',#5,.NOT_KNOWN.) ;
#8=PRODUCT_RELATED_PRODUCT_CATEGORY('detail',$,(#5)) ;
#50=SHAPE_DEFINITION_REPRESENTATION(#40,#49) ;
#88=SPHERICAL_SURFACE('',#87,6.5) ;
#62=VERTEX_POINT('',#61) ;
#64=VERTEX_POINT('',#63) ;
#71=VERTEX_POINT('',#70) ;
#94=VERTEX_POINT('',#93) ;
#96=VERTEX_POINT('',#95) ;
#103=VERTEX_POINT('',#102) ;
#137=VERTEX_POINT('',#136) ;
#144=VERTEX_POINT('',#143) ;
#184=VERTEX_POINT('',#183) ;
#186=VERTEX_POINT('',#185) ;
#252=VERTEX_POINT('',#251) ;
#254=VERTEX_POINT('',#253) ;
#261=VERTEX_POINT('',#260) ;
#268=VERTEX_POINT('',#267) ;
#309=VERTEX_POINT('',#308) ;
#311=VERTEX_POINT('',#310) ;
#318=VERTEX_POINT('',#317) ;
#325=VERTEX_POINT('',#324) ;
#366=VERTEX_POINT('',#365) ;
#368=VERTEX_POINT('',#367) ;
#375=VERTEX_POINT('',#374) ;
#382=VERTEX_POINT('',#381) ;
#451=VERTEX_POINT('',#450) ;
#458=VERTEX_POINT('',#457) ;
#494=VERTEX_POINT('',#493) ;
#496=VERTEX_POINT('',#495) ;
#41=(LENGTH_UNIT()NAMED_UNIT(*)SI_UNIT(.MILLI.,.METRE.)) ;
#42=(NAMED_UNIT(*)PLANE_ANGLE_UNIT()SI_UNIT($,.RADIAN.)) ;
#44=(NAMED_UNIT(*)SI_UNIT($,.STERADIAN.)SOLID_ANGLE_UNIT()) ;
#46=(GEOMETRIC_REPRESENTATION_CONTEXT(3)GLOBAL_UNCERTAINTY_ASSIGNED_CONTEXT((#45))GLOBAL_UNIT_ASSIGNED_CONTEXT((#41,#42,#44))REPRESENTATION_CONTEXT(' ',' ')) ;
ENDSEC;
END-ISO-10303-21;
