ISO-10303-21;
HEADER;
FILE_DESCRIPTION(( 'MO.23.15.20.STEP' ), '1');
FILE_NAME( 'MO.23.15.20.STEP', '2018-10-03T11:04:37',( 'Sopra'),('sopra-pneumatic.com'), 'SwSTEP 2.0','SolidWorks 2009','' );
FILE_SCHEMA (( 'CONFIG_CONTROL_DESIGN' ));
ENDSEC;

DATA;
#1 = PERSON ( 'NON SPECIFICATO', 'NON SPECIFICATO', 'NON SPECIFICATO', ('NON SPECIFICATO'), ('NON SPECIFICATO'), ('NON SPECIFICATO') ) ;
#2 = PRODUCT ( '03130080', '03130080', '', ( #363 ) ) ;
#3 = UNCERTAINTY_MEASURE_WITH_UNIT (LENGTH_MEASURE( 1.000000000000000100E-005 ), #355, 'distance_accuracy_value', 'NONE');
#4 = LINE ( 'NONE', #320, #139 ) ;
#5 = LINE ( 'NONE', #305, #149 ) ;
#6 = LINE ( 'NONE', #315, #141 ) ;
#7 = LINE ( 'NONE', #313, #143 ) ;
#8 = LINE ( 'NONE', #333, #131 ) ;
#9 = LINE ( 'NONE', #322, #137 ) ;
#10 = LOCAL_TIME ( 11, 56, 6.000000000000000000, #187 ) ;
#11 = LOCAL_TIME ( 11, 56, 6.000000000000000000, #182 ) ;
#12 = LOCAL_TIME ( 11, 56, 6.000000000000000000, #177 ) ;
#13 = EDGE_CURVE ( 'NONE', #94, #90, #103, .T. ) ;
#14 = EDGE_CURVE ( 'NONE', #91, #93, #152, .T. ) ;
#15 = EDGE_CURVE ( 'NONE', #88, #87, #123, .T. ) ;
#16 = EDGE_CURVE ( 'NONE', #89, #92, #126, .T. ) ;
#17 = EDGE_CURVE ( 'NONE', #95, #96, #108, .T. ) ;
#18 = ADVANCED_FACE ( 'NONE', ( #208 ), #210, .T. ) ;
#19 = ADVANCED_FACE ( 'NONE', ( #207, #206 ), #265, .T. ) ;
#20 = ADVANCED_FACE ( 'NONE', ( #205 ), #145, .T. ) ;
#21 = LOCAL_TIME ( 11, 56, 6.000000000000000000, #199 ) ;
#22 = ADVANCED_FACE ( 'NONE', ( #204 ), #246, .T. ) ;
#23 = LOCAL_TIME ( 11, 56, 6.000000000000000000, #194 ) ;
#24 =( GEOMETRIC_REPRESENTATION_CONTEXT ( 3 ) GLOBAL_UNCERTAINTY_ASSIGNED_CONTEXT ( ( #3 ) ) GLOBAL_UNIT_ASSIGNED_CONTEXT ( ( #355, #356, #357 ) ) REPRESENTATION_CONTEXT ( 'NONE', 'WORKASPACE' ) );
#25 = ADVANCED_FACE ( 'NONE', ( #244 ), #242, .T. ) ;
#26 = ADVANCED_FACE ( 'NONE', ( #235 ), #234, .F. ) ;
#27 = ADVANCED_FACE ( 'NONE', ( #216 ), #209, .T. ) ;
#28 = ADVANCED_FACE ( 'NONE', ( #203 ), #164, .T. ) ;
#29 = ADVANCED_FACE ( 'NONE', ( #221, #57 ), #287, .T. ) ;
#30 = ADVANCED_FACE ( 'NONE', ( #56 ), #55, .F. ) ;
#31 = ADVANCED_FACE ( 'NONE', ( #54, #53 ), #294, .T. ) ;
#32 = EDGE_CURVE ( 'NONE', #97, #100, #52, .T. ) ;
#33 = EDGE_CURVE ( 'NONE', #90, #94, #161, .T. ) ;
#34 = EDGE_CURVE ( 'NONE', #91, #94, #51, .T. ) ;
#35 = EDGE_CURVE ( 'NONE', #88, #89, #5, .T. ) ;
#36 = EDGE_CURVE ( 'NONE', #87, #88, #151, .T. ) ;
#37 = EDGE_CURVE ( 'NONE', #92, #89, #163, .T. ) ;
#38 = EDGE_CURVE ( 'NONE', #87, #92, #7, .T. ) ;
#39 = EDGE_CURVE ( 'NONE', #89, #95, #6, .T. ) ;
#40 = EDGE_CURVE ( 'NONE', #96, #95, #144, .T. ) ;
#41 = EDGE_CURVE ( 'NONE', #92, #96, #4, .T. ) ;
#42 = EDGE_CURVE ( 'NONE', #98, #99, #9, .T. ) ;
#43 = EDGE_CURVE ( 'NONE', #97, #98, #138, .T. ) ;
#44 = EDGE_CURVE ( 'NONE', #93, #91, #142, .T. ) ;
#45 = EDGE_CURVE ( 'NONE', #100, #99, #156, .T. ) ;
#46 = EDGE_CURVE ( 'NONE', #93, #90, #8, .T. ) ;
#47 = EDGE_CURVE ( 'NONE', #99, #100, #132, .T. ) ;
#48 = EDGE_CURVE ( 'NONE', #98, #97, #134, .T. ) ;
#49 = ADVANCED_BREP_SHAPE_REPRESENTATION ( '03130080', ( #50, #125 ), #24 ) ;
#50 = MANIFOLD_SOLID_BREP ( 'Rivoluzione1', #66 ) ;
#51 = LINE ( 'NONE', #303, #155 ) ;
#52 = LINE ( 'NONE', #298, #158 ) ;
#53 = FACE_BOUND ( 'NONE', #63, .T. ) ;
#54 = FACE_OUTER_BOUND ( 'NONE', #65, .T. ) ;
#55 = CYLINDRICAL_SURFACE ( 'NONE', #162, 5.750000000000000900 ) ;
#56 = FACE_OUTER_BOUND ( 'NONE', #241, .T. ) ;
#57 = FACE_OUTER_BOUND ( 'NONE', #236, .T. ) ;
#58 = EDGE_LOOP ( 'NONE', ( #73, #75, #74, #76 ) ) ;
#59 = EDGE_LOOP ( 'NONE', ( #239, #231 ) ) ;
#60 = EDGE_LOOP ( 'NONE', ( #69, #86, #68, #214 ) ) ;
#61 = EDGE_LOOP ( 'NONE', ( #223, #243 ) ) ;
#62 = EDGE_LOOP ( 'NONE', ( #218, #230 ) ) ;
#63 = EDGE_LOOP ( 'NONE', ( #212, #211 ) ) ;
#64 = EDGE_LOOP ( 'NONE', ( #84, #71, #70, #72 ) ) ;
#65 = EDGE_LOOP ( 'NONE', ( #217, #213 ) ) ;
#66 = CLOSED_SHELL ( 'NONE', ( #26, #20, #25, #22, #18, #19, #27, #28, #29, #30, #31 ) ) ;
#67 = EDGE_LOOP ( 'NONE', ( #81, #83, #82, #85 ) ) ;
#68 = ORIENTED_EDGE ( 'NONE', *, *, #32, .T. ) ;
#69 = ORIENTED_EDGE ( 'NONE', *, *, #42, .F. ) ;
#70 = ORIENTED_EDGE ( 'NONE', *, *, #33, .T. ) ;
#71 = ORIENTED_EDGE ( 'NONE', *, *, #46, .T. ) ;
#72 = ORIENTED_EDGE ( 'NONE', *, *, #34, .F. ) ;
#73 = ORIENTED_EDGE ( 'NONE', *, *, #36, .T. ) ;
#74 = ORIENTED_EDGE ( 'NONE', *, *, #37, .F. ) ;
#75 = ORIENTED_EDGE ( 'NONE', *, *, #35, .T. ) ;
#76 = ORIENTED_EDGE ( 'NONE', *, *, #38, .F. ) ;
#77 = ORIENTED_EDGE ( 'NONE', *, *, #37, .T. ) ;
#78 = ORIENTED_EDGE ( 'NONE', *, *, #40, .F. ) ;
#79 = ORIENTED_EDGE ( 'NONE', *, *, #39, .T. ) ;
#80 = ORIENTED_EDGE ( 'NONE', *, *, #41, .F. ) ;
#81 = ORIENTED_EDGE ( 'NONE', *, *, #43, .T. ) ;
#82 = ORIENTED_EDGE ( 'NONE', *, *, #45, .F. ) ;
#83 = ORIENTED_EDGE ( 'NONE', *, *, #42, .T. ) ;
#84 = ORIENTED_EDGE ( 'NONE', *, *, #44, .F. ) ;
#85 = ORIENTED_EDGE ( 'NONE', *, *, #32, .F. ) ;
#86 = ORIENTED_EDGE ( 'NONE', *, *, #48, .T. ) ;
#87 = VERTEX_POINT ( 'NONE', #341 ) ;
#88 = VERTEX_POINT ( 'NONE', #342 ) ;
#89 = VERTEX_POINT ( 'NONE', #343 ) ;
#90 = VERTEX_POINT ( 'NONE', #344 ) ;
#91 = VERTEX_POINT ( 'NONE', #345 ) ;
#92 = VERTEX_POINT ( 'NONE', #346 ) ;
#93 = VERTEX_POINT ( 'NONE', #347 ) ;
#94 = VERTEX_POINT ( 'NONE', #348 ) ;
#95 = VERTEX_POINT ( 'NONE', #349 ) ;
#96 = VERTEX_POINT ( 'NONE', #350 ) ;
#97 = VERTEX_POINT ( 'NONE', #351 ) ;
#98 = VERTEX_POINT ( 'NONE', #352 ) ;
#99 = VERTEX_POINT ( 'NONE', #353 ) ;
#100 = VERTEX_POINT ( 'NONE', #354 ) ;
#101 = AXIS2_PLACEMENT_3D ( 'NONE', #269, #270, #271 ) ;
#102 = AXIS2_PLACEMENT_3D ( 'NONE', #259, #260, #261 ) ;
#103 = CIRCLE ( 'NONE', #150, 5.750000000000001800 ) ;
#104 = CC_DESIGN_SECURITY_CLASSIFICATION ( #111, ( #116 ) ) ;
#105 = CC_DESIGN_APPROVAL ( #106, ( #111 ) ) ;
#106 = APPROVAL ( #378, 'NON SPECIFICATO' ) ;
#107 = CC_DESIGN_DATE_AND_TIME_ASSIGNMENT ( #196, #377, ( #111 ) ) ;
#108 = CIRCLE ( 'NONE', #102, 6.250000000000000000 ) ;
#109 = AXIS2_PLACEMENT_3D ( 'NONE', #262, #263, #264 ) ;
#110 = CC_DESIGN_PERSON_AND_ORGANIZATION_ASSIGNMENT ( #193, #376, ( #111 ) ) ;
#111 = SECURITY_CLASSIFICATION ( '', '', #375 ) ;
#112 = CC_DESIGN_PERSON_AND_ORGANIZATION_ASSIGNMENT ( #192, #374, ( #116 ) ) ;
#113 = CC_DESIGN_PERSON_AND_ORGANIZATION_ASSIGNMENT ( #191, #373, ( #116 ) ) ;
#114 = CC_DESIGN_APPROVAL ( #115, ( #116 ) ) ;
#115 = APPROVAL ( #371, 'NON SPECIFICATO' ) ;
#116 = PRODUCT_DEFINITION_FORMATION_WITH_SPECIFIED_SOURCE ( 'TUTTO', '', #2, .NOT_KNOWN. ) ;
#117 = CC_DESIGN_DATE_AND_TIME_ASSIGNMENT ( #184, #370, ( #121 ) ) ;
#118 = CC_DESIGN_PERSON_AND_ORGANIZATION_ASSIGNMENT ( #181, #369, ( #121 ) ) ;
#119 = CC_DESIGN_APPROVAL ( #120, ( #121 ) ) ;
#120 = APPROVAL ( #367, 'NON SPECIFICATO' ) ;
#121 = PRODUCT_DEFINITION ( 'NON CONOSCIUTO', '', #116, #169 ) ;
#122 = CC_DESIGN_PERSON_AND_ORGANIZATION_ASSIGNMENT ( #174, #364, ( #2 ) ) ;
#123 = CIRCLE ( 'NONE', #127, 5.950000000000000200 ) ;
#124 = AXIS2_PLACEMENT_3D ( 'NONE', #256, #257, #258 ) ;
#125 = AXIS2_PLACEMENT_3D ( 'NONE', #358, #359, #360 ) ;
#126 = CIRCLE ( 'NONE', #124, 6.250000000000000000 ) ;
#127 = AXIS2_PLACEMENT_3D ( 'NONE', #253, #254, #255 ) ;
#128 = AXIS2_PLACEMENT_3D ( 'NONE', #338, #339, #340 ) ;
#129 = AXIS2_PLACEMENT_3D ( 'NONE', #250, #251, #252 ) ;
#130 = AXIS2_PLACEMENT_3D ( 'NONE', #335, #336, #337 ) ;
#131 = VECTOR ( 'NONE', #334, 1000.000000000000000 ) ;
#132 = CIRCLE ( 'NONE', #130, 7.250000000000000000 ) ;
#133 = AXIS2_PLACEMENT_3D ( 'NONE', #330, #331, #332 ) ;
#134 = CIRCLE ( 'NONE', #128, 7.250000000000000000 ) ;
#135 = AXIS2_PLACEMENT_3D ( 'NONE', #327, #328, #329 ) ;
#136 = AXIS2_PLACEMENT_3D ( 'NONE', #324, #325, #326 ) ;
#137 = VECTOR ( 'NONE', #323, 1000.000000000000000 ) ;
#138 = CIRCLE ( 'NONE', #136, 7.250000000000000000 ) ;
#139 = VECTOR ( 'NONE', #321, 1000.000000000000000 ) ;
#140 = AXIS2_PLACEMENT_3D ( 'NONE', #317, #318, #319 ) ;
#141 = VECTOR ( 'NONE', #316, 1000.000000000000000 ) ;
#142 = CIRCLE ( 'NONE', #135, 5.750000000000000000 ) ;
#143 = VECTOR ( 'NONE', #314, 1000.000000000000000 ) ;
#144 = CIRCLE ( 'NONE', #140, 6.250000000000000000 ) ;
#145 = CONICAL_SURFACE ( 'NONE', #101, 6.250000000000000000, 0.5235987755983019200 ) ;
#146 = AXIS2_PLACEMENT_3D ( 'NONE', #310, #311, #312 ) ;
#147 = AXIS2_PLACEMENT_3D ( 'NONE', #266, #267, #268 ) ;
#148 = AXIS2_PLACEMENT_3D ( 'NONE', #307, #308, #309 ) ;
#149 = VECTOR ( 'NONE', #306, 1000.000000000000000 ) ;
#150 = AXIS2_PLACEMENT_3D ( 'NONE', #171, #248, #249 ) ;
#151 = CIRCLE ( 'NONE', #148, 5.950000000000000200 ) ;
#152 = CIRCLE ( 'NONE', #129, 5.750000000000000000 ) ;
#153 = AXIS2_PLACEMENT_3D ( 'NONE', #284, #285, #286 ) ;
#154 = PRODUCT_RELATED_PRODUCT_CATEGORY ( 'detail', '', ( #2 ) ) ;
#155 = VECTOR ( 'NONE', #304, 1000.000000000000000 ) ;
#156 = CIRCLE ( 'NONE', #133, 7.250000000000000000 ) ;
#157 = AXIS2_PLACEMENT_3D ( 'NONE', #300, #301, #302 ) ;
#158 = VECTOR ( 'NONE', #299, 1000.000000000000000 ) ;
#159 = AXIS2_PLACEMENT_3D ( 'NONE', #295, #296, #297 ) ;
#160 = AXIS2_PLACEMENT_3D ( 'NONE', #288, #289, #290 ) ;
#161 = CIRCLE ( 'NONE', #157, 5.750000000000001800 ) ;
#162 = AXIS2_PLACEMENT_3D ( 'NONE', #291, #292, #293 ) ;
#163 = CIRCLE ( 'NONE', #146, 6.250000000000000000 ) ;
#164 = CONICAL_SURFACE ( 'NONE', #153, 6.250000000000000000, 0.5235987755983019200 ) ;
#165 = AXIS2_PLACEMENT_3D ( 'NONE', #281, #282, #283 ) ;
#166 = AXIS2_PLACEMENT_3D ( 'NONE', #278, #279, #280 ) ;
#167 = AXIS2_PLACEMENT_3D ( 'NONE', #272, #273, #274 ) ;
#168 = AXIS2_PLACEMENT_3D ( 'NONE', #275, #276, #277 ) ;
#169 = DESIGN_CONTEXT ( 'detailed design', #365, 'design' ) ;
#170 = PRODUCT_DEFINITION_SHAPE ( 'NONE', 'NONE',  #121 ) ;
#171 = CARTESIAN_POINT ( 'NONE',  ( 0.0000000000000000000, 0.0000000000000000000, 0.0000000000000000000 ) ) ;
#172 = SHAPE_DEFINITION_REPRESENTATION ( #170, #49 ) ;
#173 = ORGANIZATION ( 'NON SPECIFICATO', 'NON SPECIFICATO', '' ) ;
#174 = PERSON_AND_ORGANIZATION ( #1, #173 ) ;
#175 = PERSON_AND_ORGANIZATION ( #1, #173 ) ;
#176 = APPROVAL_PERSON_ORGANIZATION ( #175, #120, #368 ) ;
#177 = COORDINATED_UNIVERSAL_TIME_OFFSET ( 1, 0, .AHEAD. ) ;
#178 = CALENDAR_DATE ( 2011, 7, 11 ) ;
#179 = DATE_AND_TIME ( #178, #12 ) ;
#180 = APPROVAL_DATE_TIME ( #179, #120 ) ;
#181 = PERSON_AND_ORGANIZATION ( #1, #173 ) ;
#182 = COORDINATED_UNIVERSAL_TIME_OFFSET ( 1, 0, .AHEAD. ) ;
#183 = CALENDAR_DATE ( 2011, 7, 11 ) ;
#184 = DATE_AND_TIME ( #183, #11 ) ;
#185 = PERSON_AND_ORGANIZATION ( #1, #173 ) ;
#186 = APPROVAL_PERSON_ORGANIZATION ( #185, #115, #372 ) ;
#187 = COORDINATED_UNIVERSAL_TIME_OFFSET ( 1, 0, .AHEAD. ) ;
#188 = CALENDAR_DATE ( 2011, 7, 11 ) ;
#189 = DATE_AND_TIME ( #188, #10 ) ;
#190 = APPROVAL_DATE_TIME ( #189, #115 ) ;
#191 = PERSON_AND_ORGANIZATION ( #1, #173 ) ;
#192 = PERSON_AND_ORGANIZATION ( #1, #173 ) ;
#193 = PERSON_AND_ORGANIZATION ( #1, #173 ) ;
#194 = COORDINATED_UNIVERSAL_TIME_OFFSET ( 1, 0, .AHEAD. ) ;
#195 = CALENDAR_DATE ( 2011, 7, 11 ) ;
#196 = DATE_AND_TIME ( #195, #23 ) ;
#197 = PERSON_AND_ORGANIZATION ( #1, #173 ) ;
#198 = APPROVAL_PERSON_ORGANIZATION ( #197, #106, #379 ) ;
#199 = COORDINATED_UNIVERSAL_TIME_OFFSET ( 1, 0, .AHEAD. ) ;
#200 = CALENDAR_DATE ( 2011, 7, 11 ) ;
#201 = DATE_AND_TIME ( #200, #21 ) ;
#202 = APPROVAL_DATE_TIME ( #201, #106 ) ;
#203 = FACE_OUTER_BOUND ( 'NONE', #238, .T. ) ;
#204 = FACE_OUTER_BOUND ( 'NONE', #67, .T. ) ;
#205 = FACE_OUTER_BOUND ( 'NONE', #58, .T. ) ;
#206 = FACE_OUTER_BOUND ( 'NONE', #59, .T. ) ;
#207 = FACE_BOUND ( 'NONE', #62, .T. ) ;
#208 = FACE_OUTER_BOUND ( 'NONE', #60, .T. ) ;
#209 = CYLINDRICAL_SURFACE ( 'NONE', #165, 6.250000000000000000 ) ;
#210 = CYLINDRICAL_SURFACE ( 'NONE', #109, 7.250000000000000000 ) ;
#211 = ORIENTED_EDGE ( 'NONE', *, *, #33, .F. ) ;
#212 = ORIENTED_EDGE ( 'NONE', *, *, #13, .F. ) ;
#213 = ORIENTED_EDGE ( 'NONE', *, *, #47, .T. ) ;
#214 = ORIENTED_EDGE ( 'NONE', *, *, #47, .F. ) ;
#215 = ORIENTED_EDGE ( 'NONE', *, *, #41, .T. ) ;
#216 = FACE_OUTER_BOUND ( 'NONE', #237, .T. ) ;
#217 = ORIENTED_EDGE ( 'NONE', *, *, #45, .T. ) ;
#218 = ORIENTED_EDGE ( 'NONE', *, *, #40, .T. ) ;
#219 = ORIENTED_EDGE ( 'NONE', *, *, #34, .T. ) ;
#220 = ORIENTED_EDGE ( 'NONE', *, *, #13, .T. ) ;
#221 = FACE_BOUND ( 'NONE', #61, .T. ) ;
#222 = ORIENTED_EDGE ( 'NONE', *, *, #36, .F. ) ;
#223 = ORIENTED_EDGE ( 'NONE', *, *, #14, .T. ) ;
#224 = ORIENTED_EDGE ( 'NONE', *, *, #15, .T. ) ;
#225 = ORIENTED_EDGE ( 'NONE', *, *, #16, .F. ) ;
#226 = ORIENTED_EDGE ( 'NONE', *, *, #35, .F. ) ;
#227 = ORIENTED_EDGE ( 'NONE', *, *, #17, .F. ) ;
#228 = ORIENTED_EDGE ( 'NONE', *, *, #38, .T. ) ;
#229 = ORIENTED_EDGE ( 'NONE', *, *, #16, .T. ) ;
#230 = ORIENTED_EDGE ( 'NONE', *, *, #17, .T. ) ;
#231 = ORIENTED_EDGE ( 'NONE', *, *, #48, .F. ) ;
#232 = ORIENTED_EDGE ( 'NONE', *, *, #14, .F. ) ;
#233 = ORIENTED_EDGE ( 'NONE', *, *, #46, .F. ) ;
#234 = CYLINDRICAL_SURFACE ( 'NONE', #166, 5.750000000000000900 ) ;
#235 = FACE_OUTER_BOUND ( 'NONE', #64, .T. ) ;
#236 = EDGE_LOOP ( 'NONE', ( #222, #240 ) ) ;
#237 = EDGE_LOOP ( 'NONE', ( #247, #229, #215, #227 ) ) ;
#238 = EDGE_LOOP ( 'NONE', ( #226, #224, #228, #225 ) ) ;
#239 = ORIENTED_EDGE ( 'NONE', *, *, #43, .F. ) ;
#240 = ORIENTED_EDGE ( 'NONE', *, *, #15, .F. ) ;
#241 = EDGE_LOOP ( 'NONE', ( #233, #232, #219, #220 ) ) ;
#242 = CYLINDRICAL_SURFACE ( 'NONE', #168, 6.250000000000000000 ) ;
#243 = ORIENTED_EDGE ( 'NONE', *, *, #44, .T. ) ;
#244 = FACE_OUTER_BOUND ( 'NONE', #245, .T. ) ;
#245 = EDGE_LOOP ( 'NONE', ( #77, #79, #78, #80 ) ) ;
#246 = CYLINDRICAL_SURFACE ( 'NONE', #167, 7.250000000000000000 ) ;
#247 = ORIENTED_EDGE ( 'NONE', *, *, #39, .F. ) ;
#248 = DIRECTION ( 'NONE',  ( -0.0000000000000000000, -1.000000000000000000, -0.0000000000000000000 ) ) ;
#249 = DIRECTION ( 'NONE',  ( 0.0000000000000000000, 0.0000000000000000000, -1.000000000000000000 ) ) ;
#250 = CARTESIAN_POINT ( 'NONE',  ( 0.0000000000000000000, 17.00000000000000000, 0.0000000000000000000 ) ) ;
#251 = DIRECTION ( 'NONE',  ( -0.0000000000000000000, -1.000000000000000000, -0.0000000000000000000 ) ) ;
#252 = DIRECTION ( 'NONE',  ( 0.0000000000000000000, 0.0000000000000000000, -1.000000000000000000 ) ) ;
#253 = CARTESIAN_POINT ( 'NONE',  ( 0.0000000000000000000, 17.00000000000000000, 0.0000000000000000000 ) ) ;
#254 = DIRECTION ( 'NONE',  ( -0.0000000000000000000, -1.000000000000000000, -0.0000000000000000000 ) ) ;
#255 = DIRECTION ( 'NONE',  ( 0.0000000000000000000, 0.0000000000000000000, -1.000000000000000000 ) ) ;
#256 = CARTESIAN_POINT ( 'NONE',  ( 0.0000000000000000000, 16.48038475772934300, 0.0000000000000000000 ) ) ;
#257 = DIRECTION ( 'NONE',  ( -0.0000000000000000000, -1.000000000000000000, -0.0000000000000000000 ) ) ;
#258 = DIRECTION ( 'NONE',  ( 0.0000000000000000000, 0.0000000000000000000, -1.000000000000000000 ) ) ;
#259 = CARTESIAN_POINT ( 'NONE',  ( 0.0000000000000000000, 0.8000000000000003800, 0.0000000000000000000 ) ) ;
#260 = DIRECTION ( 'NONE',  ( -0.0000000000000000000, -1.000000000000000000, -0.0000000000000000000 ) ) ;
#261 = DIRECTION ( 'NONE',  ( 0.0000000000000000000, 0.0000000000000000000, -1.000000000000000000 ) ) ;
#262 = CARTESIAN_POINT ( 'NONE',  ( 0.0000000000000000000, -12.77979795290797000, 0.0000000000000000000 ) ) ;
#263 = DIRECTION ( 'NONE',  ( -0.0000000000000000000, -1.000000000000000000, -0.0000000000000000000 ) ) ;
#264 = DIRECTION ( 'NONE',  ( 0.0000000000000000000, 0.0000000000000000000, -1.000000000000000000 ) ) ;
#265 = PLANE ( 'NONE',  #147 ) ;
#266 = CARTESIAN_POINT ( 'NONE',  ( 7.250000000000000000, 0.7999999999999999300, 0.0000000000000000000 ) ) ;
#267 = DIRECTION ( 'NONE',  ( 0.0000000000000000000, 1.000000000000000000, 0.0000000000000000000 ) ) ;
#268 = DIRECTION ( 'NONE',  ( 0.0000000000000000000, -0.0000000000000000000, 1.000000000000000000 ) ) ;
#269 = CARTESIAN_POINT ( 'NONE',  ( 0.0000000000000000000, 16.48038475772934300, 0.0000000000000000000 ) ) ;
#270 = DIRECTION ( 'NONE',  ( -0.0000000000000000000, -1.000000000000000000, -0.0000000000000000000 ) ) ;
#271 = DIRECTION ( 'NONE',  ( 0.0000000000000000000, 0.0000000000000000000, -1.000000000000000000 ) ) ;
#272 = CARTESIAN_POINT ( 'NONE',  ( 0.0000000000000000000, -12.77979795290797000, 0.0000000000000000000 ) ) ;
#273 = DIRECTION ( 'NONE',  ( -0.0000000000000000000, -1.000000000000000000, -0.0000000000000000000 ) ) ;
#274 = DIRECTION ( 'NONE',  ( 0.0000000000000000000, 0.0000000000000000000, -1.000000000000000000 ) ) ;
#275 = CARTESIAN_POINT ( 'NONE',  ( 0.0000000000000000000, -12.77979795290797000, 0.0000000000000000000 ) ) ;
#276 = DIRECTION ( 'NONE',  ( -0.0000000000000000000, -1.000000000000000000, -0.0000000000000000000 ) ) ;
#277 = DIRECTION ( 'NONE',  ( 0.0000000000000000000, 0.0000000000000000000, -1.000000000000000000 ) ) ;
#278 = CARTESIAN_POINT ( 'NONE',  ( 0.0000000000000000000, -12.77979795290797000, 0.0000000000000000000 ) ) ;
#279 = DIRECTION ( 'NONE',  ( -0.0000000000000000000, -1.000000000000000000, -0.0000000000000000000 ) ) ;
#280 = DIRECTION ( 'NONE',  ( 0.0000000000000000000, 0.0000000000000000000, -1.000000000000000000 ) ) ;
#281 = CARTESIAN_POINT ( 'NONE',  ( 0.0000000000000000000, -12.77979795290797000, 0.0000000000000000000 ) ) ;
#282 = DIRECTION ( 'NONE',  ( -0.0000000000000000000, -1.000000000000000000, -0.0000000000000000000 ) ) ;
#283 = DIRECTION ( 'NONE',  ( 0.0000000000000000000, 0.0000000000000000000, -1.000000000000000000 ) ) ;
#284 = CARTESIAN_POINT ( 'NONE',  ( 0.0000000000000000000, 16.48038475772934300, 0.0000000000000000000 ) ) ;
#285 = DIRECTION ( 'NONE',  ( -0.0000000000000000000, -1.000000000000000000, -0.0000000000000000000 ) ) ;
#286 = DIRECTION ( 'NONE',  ( 0.0000000000000000000, 0.0000000000000000000, -1.000000000000000000 ) ) ;
#287 = PLANE ( 'NONE',  #160 ) ;
#288 = CARTESIAN_POINT ( 'NONE',  ( 5.950000000000000200, 17.00000000000000000, 0.0000000000000000000 ) ) ;
#289 = DIRECTION ( 'NONE',  ( 0.0000000000000000000, 1.000000000000000000, 0.0000000000000000000 ) ) ;
#290 = DIRECTION ( 'NONE',  ( 0.0000000000000000000, -0.0000000000000000000, 1.000000000000000000 ) ) ;
#291 = CARTESIAN_POINT ( 'NONE',  ( 0.0000000000000000000, -12.77979795290797000, 0.0000000000000000000 ) ) ;
#292 = DIRECTION ( 'NONE',  ( -0.0000000000000000000, -1.000000000000000000, -0.0000000000000000000 ) ) ;
#293 = DIRECTION ( 'NONE',  ( 0.0000000000000000000, 0.0000000000000000000, -1.000000000000000000 ) ) ;
#294 = PLANE ( 'NONE',  #159 ) ;
#295 = CARTESIAN_POINT ( 'NONE',  ( 5.750000000000001800, 0.0000000000000000000, 0.0000000000000000000 ) ) ;
#296 = DIRECTION ( 'NONE',  ( 0.0000000000000000000, -1.000000000000000000, -0.0000000000000000000 ) ) ;
#297 = DIRECTION ( 'NONE',  ( 0.0000000000000000000, 0.0000000000000000000, -1.000000000000000000 ) ) ;
#298 = CARTESIAN_POINT ( 'NONE',  ( 0.0000000000000000000, -12.77979795290797000, -7.250000000000000000 ) ) ;
#299 = DIRECTION ( 'NONE',  ( -0.0000000000000000000, -1.000000000000000000, -0.0000000000000000000 ) ) ;
#300 = CARTESIAN_POINT ( 'NONE',  ( 0.0000000000000000000, 0.0000000000000000000, 0.0000000000000000000 ) ) ;
#301 = DIRECTION ( 'NONE',  ( -0.0000000000000000000, -1.000000000000000000, -0.0000000000000000000 ) ) ;
#302 = DIRECTION ( 'NONE',  ( 0.0000000000000000000, 0.0000000000000000000, -1.000000000000000000 ) ) ;
#303 = CARTESIAN_POINT ( 'NONE',  ( 0.0000000000000000000, -12.77979795290797000, -5.750000000000000900 ) ) ;
#304 = DIRECTION ( 'NONE',  ( -0.0000000000000000000, -1.000000000000000000, -0.0000000000000000000 ) ) ;
#305 = CARTESIAN_POINT ( 'NONE',  ( 7.654042494670957600E-016, 16.48038475772934300, 6.250000000000000000 ) ) ;
#306 = DIRECTION ( 'NONE',  ( 6.123233995736798100E-017, -0.8660254037844371500, 0.5000000000000026600 ) ) ;
#307 = CARTESIAN_POINT ( 'NONE',  ( 0.0000000000000000000, 17.00000000000000000, 0.0000000000000000000 ) ) ;
#308 = DIRECTION ( 'NONE',  ( -0.0000000000000000000, -1.000000000000000000, -0.0000000000000000000 ) ) ;
#309 = DIRECTION ( 'NONE',  ( 0.0000000000000000000, 0.0000000000000000000, -1.000000000000000000 ) ) ;
#310 = CARTESIAN_POINT ( 'NONE',  ( 0.0000000000000000000, 16.48038475772934300, 0.0000000000000000000 ) ) ;
#311 = DIRECTION ( 'NONE',  ( -0.0000000000000000000, -1.000000000000000000, -0.0000000000000000000 ) ) ;
#312 = DIRECTION ( 'NONE',  ( 0.0000000000000000000, 0.0000000000000000000, -1.000000000000000000 ) ) ;
#313 = CARTESIAN_POINT ( 'NONE',  ( 0.0000000000000000000, 16.48038475772934300, -6.250000000000000000 ) ) ;
#314 = DIRECTION ( 'NONE',  ( 0.0000000000000000000, -0.8660254037844371500, -0.5000000000000026600 ) ) ;
#315 = CARTESIAN_POINT ( 'NONE',  ( 7.654042494670957600E-016, -12.77979795290797000, 6.250000000000000000 ) ) ;
#316 = DIRECTION ( 'NONE',  ( -0.0000000000000000000, -1.000000000000000000, -0.0000000000000000000 ) ) ;
#317 = CARTESIAN_POINT ( 'NONE',  ( 0.0000000000000000000, 0.8000000000000003800, 0.0000000000000000000 ) ) ;
#318 = DIRECTION ( 'NONE',  ( -0.0000000000000000000, -1.000000000000000000, -0.0000000000000000000 ) ) ;
#319 = DIRECTION ( 'NONE',  ( 0.0000000000000000000, 0.0000000000000000000, -1.000000000000000000 ) ) ;
#320 = CARTESIAN_POINT ( 'NONE',  ( 0.0000000000000000000, -12.77979795290797000, -6.250000000000000000 ) ) ;
#321 = DIRECTION ( 'NONE',  ( -0.0000000000000000000, -1.000000000000000000, -0.0000000000000000000 ) ) ;
#322 = CARTESIAN_POINT ( 'NONE',  ( 8.878689293818310100E-016, -12.77979795290797000, 7.250000000000000000 ) ) ;
#323 = DIRECTION ( 'NONE',  ( -0.0000000000000000000, -1.000000000000000000, -0.0000000000000000000 ) ) ;
#324 = CARTESIAN_POINT ( 'NONE',  ( 0.0000000000000000000, 0.8000000000000003800, 0.0000000000000000000 ) ) ;
#325 = DIRECTION ( 'NONE',  ( -0.0000000000000000000, -1.000000000000000000, -0.0000000000000000000 ) ) ;
#326 = DIRECTION ( 'NONE',  ( 0.0000000000000000000, 0.0000000000000000000, -1.000000000000000000 ) ) ;
#327 = CARTESIAN_POINT ( 'NONE',  ( 0.0000000000000000000, 17.00000000000000000, 0.0000000000000000000 ) ) ;
#328 = DIRECTION ( 'NONE',  ( -0.0000000000000000000, -1.000000000000000000, -0.0000000000000000000 ) ) ;
#329 = DIRECTION ( 'NONE',  ( 0.0000000000000000000, 0.0000000000000000000, -1.000000000000000000 ) ) ;
#330 = CARTESIAN_POINT ( 'NONE',  ( 0.0000000000000000000, 0.0000000000000000000, 0.0000000000000000000 ) ) ;
#331 = DIRECTION ( 'NONE',  ( -0.0000000000000000000, -1.000000000000000000, -0.0000000000000000000 ) ) ;
#332 = DIRECTION ( 'NONE',  ( 0.0000000000000000000, 0.0000000000000000000, -1.000000000000000000 ) ) ;
#333 = CARTESIAN_POINT ( 'NONE',  ( 7.041719095097281900E-016, -12.77979795290797000, 5.750000000000000900 ) ) ;
#334 = DIRECTION ( 'NONE',  ( -0.0000000000000000000, -1.000000000000000000, -0.0000000000000000000 ) ) ;
#335 = CARTESIAN_POINT ( 'NONE',  ( 0.0000000000000000000, 0.0000000000000000000, 0.0000000000000000000 ) ) ;
#336 = DIRECTION ( 'NONE',  ( -0.0000000000000000000, -1.000000000000000000, -0.0000000000000000000 ) ) ;
#337 = DIRECTION ( 'NONE',  ( 0.0000000000000000000, 0.0000000000000000000, -1.000000000000000000 ) ) ;
#338 = CARTESIAN_POINT ( 'NONE',  ( 0.0000000000000000000, 0.8000000000000003800, 0.0000000000000000000 ) ) ;
#339 = DIRECTION ( 'NONE',  ( -0.0000000000000000000, -1.000000000000000000, -0.0000000000000000000 ) ) ;
#340 = DIRECTION ( 'NONE',  ( 0.0000000000000000000, 0.0000000000000000000, -1.000000000000000000 ) ) ;
#341 = CARTESIAN_POINT ( 'NONE',  ( 0.0000000000000000000, 17.00000000000000000, -5.950000000000000200 ) ) ;
#342 = CARTESIAN_POINT ( 'NONE',  ( 7.470345474798855300E-016, 17.00000000000000000, 5.950000000000000200 ) ) ;
#343 = CARTESIAN_POINT ( 'NONE',  ( 7.654042494670957600E-016, 16.48038475772934300, 6.250000000000000000 ) ) ;
#344 = CARTESIAN_POINT ( 'NONE',  ( 7.041719095097283800E-016, 0.0000000000000000000, 5.750000000000001800 ) ) ;
#345 = CARTESIAN_POINT ( 'NONE',  ( 0.0000000000000000000, 17.00000000000000000, -5.750000000000000000 ) ) ;
#346 = CARTESIAN_POINT ( 'NONE',  ( 0.0000000000000000000, 16.48038475772934300, -6.250000000000000000 ) ) ;
#347 = CARTESIAN_POINT ( 'NONE',  ( 7.041719095097281900E-016, 17.00000000000000000, 5.750000000000000000 ) ) ;
#348 = CARTESIAN_POINT ( 'NONE',  ( 0.0000000000000000000, 0.0000000000000000000, -5.750000000000001800 ) ) ;
#349 = CARTESIAN_POINT ( 'NONE',  ( 7.654042494670957600E-016, 0.8000000000000003800, 6.250000000000000000 ) ) ;
#350 = CARTESIAN_POINT ( 'NONE',  ( 0.0000000000000000000, 0.8000000000000003800, -6.250000000000000000 ) ) ;
#351 = CARTESIAN_POINT ( 'NONE',  ( 0.0000000000000000000, 0.8000000000000003800, -7.250000000000000000 ) ) ;
#352 = CARTESIAN_POINT ( 'NONE',  ( 8.878689293818310100E-016, 0.8000000000000003800, 7.250000000000000000 ) ) ;
#353 = CARTESIAN_POINT ( 'NONE',  ( 8.878689293818310100E-016, 0.0000000000000000000, 7.250000000000000000 ) ) ;
#354 = CARTESIAN_POINT ( 'NONE',  ( 0.0000000000000000000, 0.0000000000000000000, -7.250000000000000000 ) ) ;
#355 =( LENGTH_UNIT ( ) NAMED_UNIT ( * ) SI_UNIT ( .MILLI., .METRE. ) );
#356 =( NAMED_UNIT ( * ) PLANE_ANGLE_UNIT ( ) SI_UNIT ( $, .RADIAN. ) );
#357 =( NAMED_UNIT ( * ) SI_UNIT ( $, .STERADIAN. ) SOLID_ANGLE_UNIT ( ) );
#358 = CARTESIAN_POINT ( 'NONE',  ( 0.0000000000000000000, 0.0000000000000000000, 0.0000000000000000000 ) ) ;
#359 = DIRECTION ( 'NONE',  ( 0.0000000000000000000, 0.0000000000000000000, 1.000000000000000000 ) ) ;
#360 = DIRECTION ( 'NONE',  ( 1.000000000000000000, 0.0000000000000000000, 0.0000000000000000000 ) ) ;
#361 = APPLICATION_CONTEXT ( 'configuration controlled 3d designs of mechanical parts and assemblies' ) ;
#362 = APPLICATION_PROTOCOL_DEFINITION ( 'international standard', 'config_control_design', 1994, #361 ) ;
#363 = MECHANICAL_CONTEXT ( 'NONE', #361, 'mechanical' ) ;
#364 = PERSON_AND_ORGANIZATION_ROLE ( 'design_owner' ) ;
#365 = APPLICATION_CONTEXT ( 'configuration controlled 3d designs of mechanical parts and assemblies' ) ;
#366 = APPLICATION_PROTOCOL_DEFINITION ( 'international standard', 'config_control_design', 1994, #365 ) ;
#367 = APPROVAL_STATUS ( 'not_yet_approved' ) ;
#368 = APPROVAL_ROLE ( '' ) ;
#369 = PERSON_AND_ORGANIZATION_ROLE ( 'creator' ) ;
#370 = DATE_TIME_ROLE ( 'creation_date' ) ;
#371 = APPROVAL_STATUS ( 'not_yet_approved' ) ;
#372 = APPROVAL_ROLE ( '' ) ;
#373 = PERSON_AND_ORGANIZATION_ROLE ( 'creator' ) ;
#374 = PERSON_AND_ORGANIZATION_ROLE ( 'design_supplier' ) ;
#375 = SECURITY_CLASSIFICATION_LEVEL ( 'unclassified' ) ;
#376 = PERSON_AND_ORGANIZATION_ROLE ( 'classification_officer' ) ;
#377 = DATE_TIME_ROLE ( 'classification_date' ) ;
#378 = APPROVAL_STATUS ( 'not_yet_approved' ) ;
#379 = APPROVAL_ROLE ( '' ) ;
ENDSEC;
END-ISO-10303-21;
