ISO-10303-21;
HEADER;
FILE_DESCRIPTION (( 'STEP AP203' ),
    '1' );
FILE_NAME ('03130060.STEP',
    '2011-11-07T10:51:14',
    ( '' ),
    ( 'sopra-pneumatic' ),
    'SwSTEP 2.0',
    'SolidWorks 2011',
    '' );
FILE_SCHEMA (( 'CONFIG_CONTROL_DESIGN' ));
ENDSEC;

DATA;
#1 = CARTESIAN_POINT ( 'NONE',  ( 0.0000000000000000000, 16.00000000000000000, 0.0000000000000000000 ) ) ;
#2 = DIRECTION ( 'NONE',  ( 6.123233995736798100E-017, -0.8660254037844371500, 0.5000000000000026600 ) ) ;
#3 = CARTESIAN_POINT ( 'NONE',  ( 6.123233995736766300E-016, 15.48038475772934100, 5.000000000000000000 ) ) ;
#4 = DIRECTION ( 'NONE',  ( -0.0000000000000000000, -1.000000000000000000, -0.0000000000000000000 ) ) ;
#5 = CARTESIAN_POINT ( 'NONE',  ( 0.0000000000000000000, -12.77979795290797000, -4.500000000000000900 ) ) ;
#6 = DIRECTION ( 'NONE',  ( 0.0000000000000000000, 0.0000000000000000000, -1.000000000000000000 ) ) ;
#7 = DIRECTION ( 'NONE',  ( -0.0000000000000000000, -1.000000000000000000, -0.0000000000000000000 ) ) ;
#8 = CARTESIAN_POINT ( 'NONE',  ( 0.0000000000000000000, 0.0000000000000000000, 0.0000000000000000000 ) ) ;
#9 = DIRECTION ( 'NONE',  ( 0.0000000000000000000, 0.0000000000000000000, -1.000000000000000000 ) ) ;
#10 = DIRECTION ( 'NONE',  ( -0.0000000000000000000, -1.000000000000000000, -0.0000000000000000000 ) ) ;
#11 = CARTESIAN_POINT ( 'NONE',  ( 0.0000000000000000000, 0.8000000000000003800, 0.0000000000000000000 ) ) ;
#12 = DIRECTION ( 'NONE',  ( 0.0000000000000000000, 0.0000000000000000000, -1.000000000000000000 ) ) ;
#13 = DIRECTION ( 'NONE',  ( -0.0000000000000000000, -1.000000000000000000, -0.0000000000000000000 ) ) ;
#14 = CARTESIAN_POINT ( 'NONE',  ( 0.0000000000000000000, 15.48038475772934100, 0.0000000000000000000 ) ) ;
#15 = DIRECTION ( 'NONE',  ( 0.0000000000000000000, 0.0000000000000000000, -1.000000000000000000 ) ) ;
#16 = DIRECTION ( 'NONE',  ( -0.0000000000000000000, -1.000000000000000000, -0.0000000000000000000 ) ) ;
#17 = CARTESIAN_POINT ( 'NONE',  ( 0.0000000000000000000, 16.00000000000000000, 0.0000000000000000000 ) ) ;
#18 = DIRECTION ( 'NONE',  ( 0.0000000000000000000, 0.0000000000000000000, -1.000000000000000000 ) ) ;
#19 = DIRECTION ( 'NONE',  ( -0.0000000000000000000, -1.000000000000000000, -0.0000000000000000000 ) ) ;
#20 = CARTESIAN_POINT ( 'NONE',  ( 0.0000000000000000000, 16.00000000000000000, 0.0000000000000000000 ) ) ;
#21 = DIRECTION ( 'NONE',  ( 0.0000000000000000000, 0.0000000000000000000, -1.000000000000000000 ) ) ;
#22 = DIRECTION ( 'NONE',  ( -0.0000000000000000000, -1.000000000000000000, -0.0000000000000000000 ) ) ;
#23 = CARTESIAN_POINT ( 'NONE',  ( 0.0000000000000000000, 0.0000000000000000000, 0.0000000000000000000 ) ) ;
#24 = DIRECTION ( 'NONE',  ( -0.0000000000000000000, -1.000000000000000000, -0.0000000000000000000 ) ) ;
#25 = CARTESIAN_POINT ( 'NONE',  ( 6.123233995736766300E-016, -12.77979795290797000, 5.000000000000000000 ) ) ;
#26 = DIRECTION ( 'NONE',  ( 0.0000000000000000000, 0.0000000000000000000, -1.000000000000000000 ) ) ;
#27 = DIRECTION ( 'NONE',  ( -0.0000000000000000000, -1.000000000000000000, -0.0000000000000000000 ) ) ;
#28 = CARTESIAN_POINT ( 'NONE',  ( 0.0000000000000000000, 15.48038475772934100, 0.0000000000000000000 ) ) ;
#29 = DIRECTION ( 'NONE',  ( 0.0000000000000000000, 0.0000000000000000000, -1.000000000000000000 ) ) ;
#30 = DIRECTION ( 'NONE',  ( -0.0000000000000000000, -1.000000000000000000, -0.0000000000000000000 ) ) ;
#31 = CARTESIAN_POINT ( 'NONE',  ( 0.0000000000000000000, 16.00000000000000000, 0.0000000000000000000 ) ) ;
#32 = DIRECTION ( 'NONE',  ( 0.0000000000000000000, -0.8660254037844371500, -0.5000000000000026600 ) ) ;
#33 = CARTESIAN_POINT ( 'NONE',  ( 0.0000000000000000000, 15.48038475772934100, -5.000000000000000000 ) ) ;
#34 = DIRECTION ( 'NONE',  ( 0.0000000000000000000, 0.0000000000000000000, -1.000000000000000000 ) ) ;
#35 = DIRECTION ( 'NONE',  ( -0.0000000000000000000, -1.000000000000000000, -0.0000000000000000000 ) ) ;
#36 = CC_DESIGN_DATE_AND_TIME_ASSIGNMENT ( #361, #227, ( #40 ) ) ;
#37 = CC_DESIGN_PERSON_AND_ORGANIZATION_ASSIGNMENT ( #358, #226, ( #40 ) ) ;
#38 = CC_DESIGN_APPROVAL ( #39, ( #40 ) ) ;
#39 = APPROVAL ( #224, 'NON SPECIFICATO' ) ;
#40 = PRODUCT_DEFINITION ( 'NON CONOSCIUTO', '', #84, #243 ) ;
#41 = CC_DESIGN_PERSON_AND_ORGANIZATION_ASSIGNMENT ( #351, #221, ( #98 ) ) ;
#42 = CIRCLE ( 'NONE', #80, 4.500000000000000000 ) ;
#43 = AXIS2_PLACEMENT_3D ( 'NONE', #8, #7, #6 ) ;
#44 = AXIS2_PLACEMENT_3D ( 'NONE', #215, #216, #217 ) ;
#45 = AXIS2_PLACEMENT_3D ( 'NONE', #195, #196, #197 ) ;
#46 = AXIS2_PLACEMENT_3D ( 'NONE', #188, #189, #190 ) ;
#47 = AXIS2_PLACEMENT_3D ( 'NONE', #191, #192, #193 ) ;
#48 = AXIS2_PLACEMENT_3D ( 'NONE', #178, #179, #180 ) ;
#49 = AXIS2_PLACEMENT_3D ( 'NONE', #181, #182, #183 ) ;
#50 = CONICAL_SURFACE ( 'NONE', #63, 5.000000000000000000, 0.5235987755983019200 ) ;
#51 = AXIS2_PLACEMENT_3D ( 'NONE', #174, #175, #176 ) ;
#52 = AXIS2_PLACEMENT_3D ( 'NONE', #168, #169, #170 ) ;
#53 = AXIS2_PLACEMENT_3D ( 'NONE', #171, #172, #173 ) ;
#54 = CIRCLE ( 'NONE', #43, 4.500000000000001800 ) ;
#55 = VECTOR ( 'NONE', #161, 1000.000000000000000 ) ;
#56 = CONICAL_SURFACE ( 'NONE', #66, 5.000000000000000000, 0.5235987755983019200 ) ;
#57 = AXIS2_PLACEMENT_3D ( 'NONE', #157, #158, #159 ) ;
#58 = VECTOR ( 'NONE', #156, 1000.000000000000000 ) ;
#59 = AXIS2_PLACEMENT_3D ( 'NONE', #162, #163, #164 ) ;
#60 = VECTOR ( 'NONE', #154, 1000.000000000000000 ) ;
#61 = CIRCLE ( 'NONE', #57, 5.000000000000000000 ) ;
#62 = AXIS2_PLACEMENT_3D ( 'NONE', #150, #151, #152 ) ;
#63 = AXIS2_PLACEMENT_3D ( 'NONE', #184, #185, #186 ) ;
#64 = AXIS2_PLACEMENT_3D ( 'NONE', #147, #148, #149 ) ;
#65 = VECTOR ( 'NONE', #146, 1000.000000000000000 ) ;
#66 = AXIS2_PLACEMENT_3D ( 'NONE', #165, #166, #167 ) ;
#67 = CIRCLE ( 'NONE', #64, 5.750000000000000000 ) ;
#68 = AXIS2_PLACEMENT_3D ( 'NONE', #94, #93, #101 ) ;
#69 = CIRCLE ( 'NONE', #92, 4.500000000000000000 ) ;
#70 = CIRCLE ( 'NONE', #68, 5.750000000000000000 ) ;
#71 = AXIS2_PLACEMENT_3D ( 'NONE', #95, #97, #96 ) ;
#72 = CIRCLE ( 'NONE', #71, 5.750000000000000000 ) ;
#73 = AXIS2_PLACEMENT_3D ( 'NONE', #11, #10, #9 ) ;
#74 = CIRCLE ( 'NONE', #73, 5.000000000000000000 ) ;
#75 = AXIS2_PLACEMENT_3D ( 'NONE', #14, #13, #12 ) ;
#76 = VECTOR ( 'NONE', #32, 1000.000000000000000 ) ;
#77 = CIRCLE ( 'NONE', #78, 4.700000000000000200 ) ;
#78 = AXIS2_PLACEMENT_3D ( 'NONE', #17, #16, #15 ) ;
#79 = CIRCLE ( 'NONE', #83, 4.700000000000000200 ) ;
#80 = AXIS2_PLACEMENT_3D ( 'NONE', #20, #19, #18 ) ;
#81 = VECTOR ( 'NONE', #2, 1000.000000000000000 ) ;
#82 = VECTOR ( 'NONE', #4, 1000.000000000000000 ) ;
#83 = AXIS2_PLACEMENT_3D ( 'NONE', #1, #35, #34 ) ;
#84 = PRODUCT_DEFINITION_FORMATION_WITH_SPECIFIED_SOURCE ( 'TUTTO', '', #98, .NOT_KNOWN. ) ;
#85 = CIRCLE ( 'NONE', #62, 5.750000000000000000 ) ;
#86 = AXIS2_PLACEMENT_3D ( 'NONE', #23, #22, #21 ) ;
#87 = VECTOR ( 'NONE', #24, 1000.000000000000000 ) ;
#88 = CIRCLE ( 'NONE', #75, 5.000000000000000000 ) ;
#89 = CIRCLE ( 'NONE', #86, 4.500000000000001800 ) ;
#90 = AXIS2_PLACEMENT_3D ( 'NONE', #28, #27, #26 ) ;
#91 = CIRCLE ( 'NONE', #90, 5.000000000000000000 ) ;
#92 = AXIS2_PLACEMENT_3D ( 'NONE', #31, #30, #29 ) ;
#93 = DIRECTION ( 'NONE',  ( -0.0000000000000000000, -1.000000000000000000, -0.0000000000000000000 ) ) ;
#94 = CARTESIAN_POINT ( 'NONE',  ( 0.0000000000000000000, 0.8000000000000003800, 0.0000000000000000000 ) ) ;
#95 = CARTESIAN_POINT ( 'NONE',  ( 0.0000000000000000000, 0.0000000000000000000, 0.0000000000000000000 ) ) ;
#96 = DIRECTION ( 'NONE',  ( 0.0000000000000000000, 0.0000000000000000000, -1.000000000000000000 ) ) ;
#97 = DIRECTION ( 'NONE',  ( -0.0000000000000000000, -1.000000000000000000, -0.0000000000000000000 ) ) ;
#98 = PRODUCT ( '03130060', '03130060', '', ( #220 ) ) ;
#99 = UNCERTAINTY_MEASURE_WITH_UNIT (LENGTH_MEASURE( 1.000000000000000100E-005 ), #212, 'distance_accuracy_value', 'NONE');
#100 = PERSON ( 'NON SPECIFICATO', 'NON SPECIFICATO', 'NON SPECIFICATO', ('NON SPECIFICATO'), ('NON SPECIFICATO'), ('NON SPECIFICATO') ) ;
#101 = DIRECTION ( 'NONE',  ( 0.0000000000000000000, 0.0000000000000000000, -1.000000000000000000 ) ) ;
#102 = CC_DESIGN_PERSON_AND_ORGANIZATION_ASSIGNMENT ( #369, #231, ( #84 ) ) ;
#103 = CC_DESIGN_PERSON_AND_ORGANIZATION_ASSIGNMENT ( #368, #230, ( #84 ) ) ;
#104 = CC_DESIGN_APPROVAL ( #105, ( #84 ) ) ;
#105 = APPROVAL ( #228, 'NON SPECIFICATO' ) ;
#106 = LOCAL_TIME ( 11, 51, 14.00000000000000000, #376 ) ;
#107 = LOCAL_TIME ( 11, 51, 14.00000000000000000, #371 ) ;
#108 = LOCAL_TIME ( 11, 51, 14.00000000000000000, #364 ) ;
#109 =( GEOMETRIC_REPRESENTATION_CONTEXT ( 3 ) GLOBAL_UNCERTAINTY_ASSIGNED_CONTEXT ( ( #99 ) ) GLOBAL_UNIT_ASSIGNED_CONTEXT ( ( #212, #213, #214 ) ) REPRESENTATION_CONTEXT ( 'NONE', 'WORKASPACE' ) );
#110 = EDGE_CURVE ( 'NONE', #334, #347, #54, .T. ) ;
#111 = EDGE_CURVE ( 'NONE', #348, #347, #263, .T. ) ;
#112 = EDGE_CURVE ( 'NONE', #325, #326, #262, .T. ) ;
#113 = EDGE_CURVE ( 'NONE', #324, #325, #79, .T. ) ;
#114 = EDGE_CURVE ( 'NONE', #324, #327, #261, .T. ) ;
#115 = EDGE_CURVE ( 'NONE', #343, #348, #69, .T. ) ;
#116 = EDGE_CURVE ( 'NONE', #327, #326, #91, .T. ) ;
#117 = EDGE_CURVE ( 'NONE', #326, #328, #260, .T. ) ;
#118 = EDGE_CURVE ( 'NONE', #347, #334, #89, .T. ) ;
#119 = EDGE_CURVE ( 'NONE', #348, #343, #42, .T. ) ;
#120 = LOCAL_TIME ( 11, 51, 14.00000000000000000, #359 ) ;
#121 = EDGE_CURVE ( 'NONE', #325, #324, #77, .T. ) ;
#122 = EDGE_CURVE ( 'NONE', #326, #327, #88, .T. ) ;
#123 = EDGE_CURVE ( 'NONE', #328, #329, #74, .T. ) ;
#124 = EDGE_CURVE ( 'NONE', #332, #333, #72, .T. ) ;
#125 = EDGE_CURVE ( 'NONE', #331, #330, #70, .T. ) ;
#126 = EDGE_CURVE ( 'NONE', #330, #333, #259, .T. ) ;
#127 = EDGE_CURVE ( 'NONE', #333, #332, #67, .T. ) ;
#128 = EDGE_CURVE ( 'NONE', #330, #331, #85, .T. ) ;
#129 = EDGE_CURVE ( 'NONE', #331, #332, #258, .T. ) ;
#130 = EDGE_CURVE ( 'NONE', #327, #329, #257, .T. ) ;
#131 = EDGE_CURVE ( 'NONE', #329, #328, #61, .T. ) ;
#132 = EDGE_CURVE ( 'NONE', #343, #334, #256, .T. ) ;
#133 = ADVANCED_FACE ( 'NONE', ( #255 ), #264, .F. ) ;
#134 = ADVANCED_FACE ( 'NONE', ( #254 ), #56, .T. ) ;
#135 = ADVANCED_FACE ( 'NONE', ( #253 ), #252, .T. ) ;
#136 = ADVANCED_FACE ( 'NONE', ( #251 ), #250, .T. ) ;
#137 = ADVANCED_FACE ( 'NONE', ( #249 ), #248, .T. ) ;
#138 = ADVANCED_FACE ( 'NONE', ( #341, #345 ), #177, .T. ) ;
#139 = ADVANCED_FACE ( 'NONE', ( #342 ), #346, .T. ) ;
#140 = ADVANCED_FACE ( 'NONE', ( #344 ), #50, .T. ) ;
#141 = ADVANCED_FACE ( 'NONE', ( #340, #339 ), #187, .T. ) ;
#142 = ADVANCED_FACE ( 'NONE', ( #338 ), #337, .F. ) ;
#143 = ADVANCED_FACE ( 'NONE', ( #336, #335 ), #194, .T. ) ;
#144 = LOCAL_TIME ( 11, 51, 14.00000000000000000, #354 ) ;
#145 = CARTESIAN_POINT ( 'NONE',  ( 0.0000000000000000000, -12.77979795290797000, -5.750000000000000000 ) ) ;
#146 = DIRECTION ( 'NONE',  ( -0.0000000000000000000, -1.000000000000000000, -0.0000000000000000000 ) ) ;
#147 = CARTESIAN_POINT ( 'NONE',  ( 0.0000000000000000000, 0.0000000000000000000, 0.0000000000000000000 ) ) ;
#148 = DIRECTION ( 'NONE',  ( -0.0000000000000000000, -1.000000000000000000, -0.0000000000000000000 ) ) ;
#149 = DIRECTION ( 'NONE',  ( 0.0000000000000000000, 0.0000000000000000000, -1.000000000000000000 ) ) ;
#150 = CARTESIAN_POINT ( 'NONE',  ( 0.0000000000000000000, 0.8000000000000003800, 0.0000000000000000000 ) ) ;
#151 = DIRECTION ( 'NONE',  ( -0.0000000000000000000, -1.000000000000000000, -0.0000000000000000000 ) ) ;
#152 = DIRECTION ( 'NONE',  ( 0.0000000000000000000, 0.0000000000000000000, -1.000000000000000000 ) ) ;
#153 = CARTESIAN_POINT ( 'NONE',  ( 7.041719095097280900E-016, -12.77979795290797000, 5.750000000000000000 ) ) ;
#154 = DIRECTION ( 'NONE',  ( -0.0000000000000000000, -1.000000000000000000, -0.0000000000000000000 ) ) ;
#155 = CARTESIAN_POINT ( 'NONE',  ( 0.0000000000000000000, -12.77979795290797000, -5.000000000000000000 ) ) ;
#156 = DIRECTION ( 'NONE',  ( -0.0000000000000000000, -1.000000000000000000, -0.0000000000000000000 ) ) ;
#157 = CARTESIAN_POINT ( 'NONE',  ( 0.0000000000000000000, 0.8000000000000003800, 0.0000000000000000000 ) ) ;
#158 = DIRECTION ( 'NONE',  ( -0.0000000000000000000, -1.000000000000000000, -0.0000000000000000000 ) ) ;
#159 = DIRECTION ( 'NONE',  ( 0.0000000000000000000, 0.0000000000000000000, -1.000000000000000000 ) ) ;
#160 = CARTESIAN_POINT ( 'NONE',  ( 5.510910596163089600E-016, -12.77979795290797000, 4.500000000000000900 ) ) ;
#161 = DIRECTION ( 'NONE',  ( -0.0000000000000000000, -1.000000000000000000, -0.0000000000000000000 ) ) ;
#162 = CARTESIAN_POINT ( 'NONE',  ( 0.0000000000000000000, -12.77979795290797000, 0.0000000000000000000 ) ) ;
#163 = DIRECTION ( 'NONE',  ( -0.0000000000000000000, -1.000000000000000000, -0.0000000000000000000 ) ) ;
#164 = DIRECTION ( 'NONE',  ( 0.0000000000000000000, 0.0000000000000000000, -1.000000000000000000 ) ) ;
#165 = CARTESIAN_POINT ( 'NONE',  ( 0.0000000000000000000, 15.48038475772934100, 0.0000000000000000000 ) ) ;
#166 = DIRECTION ( 'NONE',  ( -0.0000000000000000000, -1.000000000000000000, -0.0000000000000000000 ) ) ;
#167 = DIRECTION ( 'NONE',  ( 0.0000000000000000000, 0.0000000000000000000, -1.000000000000000000 ) ) ;
#168 = CARTESIAN_POINT ( 'NONE',  ( 0.0000000000000000000, -12.77979795290797000, 0.0000000000000000000 ) ) ;
#169 = DIRECTION ( 'NONE',  ( -0.0000000000000000000, -1.000000000000000000, -0.0000000000000000000 ) ) ;
#170 = DIRECTION ( 'NONE',  ( 0.0000000000000000000, 0.0000000000000000000, -1.000000000000000000 ) ) ;
#171 = CARTESIAN_POINT ( 'NONE',  ( 0.0000000000000000000, -12.77979795290797000, 0.0000000000000000000 ) ) ;
#172 = DIRECTION ( 'NONE',  ( -0.0000000000000000000, -1.000000000000000000, -0.0000000000000000000 ) ) ;
#173 = DIRECTION ( 'NONE',  ( 0.0000000000000000000, 0.0000000000000000000, -1.000000000000000000 ) ) ;
#174 = CARTESIAN_POINT ( 'NONE',  ( 0.0000000000000000000, -12.77979795290797000, 0.0000000000000000000 ) ) ;
#175 = DIRECTION ( 'NONE',  ( -0.0000000000000000000, -1.000000000000000000, -0.0000000000000000000 ) ) ;
#176 = DIRECTION ( 'NONE',  ( 0.0000000000000000000, 0.0000000000000000000, -1.000000000000000000 ) ) ;
#177 = PLANE ( 'NONE',  #48 ) ;
#178 = CARTESIAN_POINT ( 'NONE',  ( 5.750000000000000000, 0.7999999999999999300, 0.0000000000000000000 ) ) ;
#179 = DIRECTION ( 'NONE',  ( 0.0000000000000000000, 1.000000000000000000, 0.0000000000000000000 ) ) ;
#180 = DIRECTION ( 'NONE',  ( 0.0000000000000000000, -0.0000000000000000000, 1.000000000000000000 ) ) ;
#181 = CARTESIAN_POINT ( 'NONE',  ( 0.0000000000000000000, -12.77979795290797000, 0.0000000000000000000 ) ) ;
#182 = DIRECTION ( 'NONE',  ( -0.0000000000000000000, -1.000000000000000000, -0.0000000000000000000 ) ) ;
#183 = DIRECTION ( 'NONE',  ( 0.0000000000000000000, 0.0000000000000000000, -1.000000000000000000 ) ) ;
#184 = CARTESIAN_POINT ( 'NONE',  ( 0.0000000000000000000, 15.48038475772934100, 0.0000000000000000000 ) ) ;
#185 = DIRECTION ( 'NONE',  ( -0.0000000000000000000, -1.000000000000000000, -0.0000000000000000000 ) ) ;
#186 = DIRECTION ( 'NONE',  ( 0.0000000000000000000, 0.0000000000000000000, -1.000000000000000000 ) ) ;
#187 = PLANE ( 'NONE',  #46 ) ;
#188 = CARTESIAN_POINT ( 'NONE',  ( 4.700000000000000200, 16.00000000000000000, 0.0000000000000000000 ) ) ;
#189 = DIRECTION ( 'NONE',  ( 0.0000000000000000000, 1.000000000000000000, 0.0000000000000000000 ) ) ;
#190 = DIRECTION ( 'NONE',  ( 0.0000000000000000000, -0.0000000000000000000, 1.000000000000000000 ) ) ;
#191 = CARTESIAN_POINT ( 'NONE',  ( 0.0000000000000000000, -12.77979795290797000, 0.0000000000000000000 ) ) ;
#192 = DIRECTION ( 'NONE',  ( -0.0000000000000000000, -1.000000000000000000, -0.0000000000000000000 ) ) ;
#193 = DIRECTION ( 'NONE',  ( 0.0000000000000000000, 0.0000000000000000000, -1.000000000000000000 ) ) ;
#194 = PLANE ( 'NONE',  #45 ) ;
#195 = CARTESIAN_POINT ( 'NONE',  ( 4.500000000000001800, 0.0000000000000000000, 0.0000000000000000000 ) ) ;
#196 = DIRECTION ( 'NONE',  ( 0.0000000000000000000, -1.000000000000000000, -0.0000000000000000000 ) ) ;
#197 = DIRECTION ( 'NONE',  ( 0.0000000000000000000, 0.0000000000000000000, -1.000000000000000000 ) ) ;
#198 = CARTESIAN_POINT ( 'NONE',  ( 0.0000000000000000000, 16.00000000000000000, -4.700000000000000200 ) ) ;
#199 = CARTESIAN_POINT ( 'NONE',  ( 5.939536975864663000E-016, 16.00000000000000000, 4.700000000000000200 ) ) ;
#200 = CARTESIAN_POINT ( 'NONE',  ( 6.123233995736766300E-016, 15.48038475772934100, 5.000000000000000000 ) ) ;
#201 = CARTESIAN_POINT ( 'NONE',  ( 0.0000000000000000000, 15.48038475772934100, -5.000000000000000000 ) ) ;
#202 = CARTESIAN_POINT ( 'NONE',  ( 6.123233995736766300E-016, 0.8000000000000003800, 5.000000000000000000 ) ) ;
#203 = CARTESIAN_POINT ( 'NONE',  ( 0.0000000000000000000, 0.8000000000000003800, -5.000000000000000000 ) ) ;
#204 = CARTESIAN_POINT ( 'NONE',  ( 0.0000000000000000000, 0.8000000000000003800, -5.750000000000000000 ) ) ;
#205 = CARTESIAN_POINT ( 'NONE',  ( 7.041719095097280900E-016, 0.8000000000000003800, 5.750000000000000000 ) ) ;
#206 = CARTESIAN_POINT ( 'NONE',  ( 7.041719095097280900E-016, 0.0000000000000000000, 5.750000000000000000 ) ) ;
#207 = CARTESIAN_POINT ( 'NONE',  ( 0.0000000000000000000, 0.0000000000000000000, -5.750000000000000000 ) ) ;
#208 = CARTESIAN_POINT ( 'NONE',  ( 5.510910596163090500E-016, 0.0000000000000000000, 4.500000000000001800 ) ) ;
#209 = CARTESIAN_POINT ( 'NONE',  ( 5.510910596163088600E-016, 16.00000000000000000, 4.500000000000000000 ) ) ;
#210 = CARTESIAN_POINT ( 'NONE',  ( 0.0000000000000000000, 0.0000000000000000000, -4.500000000000001800 ) ) ;
#211 = CARTESIAN_POINT ( 'NONE',  ( 0.0000000000000000000, 16.00000000000000000, -4.500000000000000000 ) ) ;
#212 =( LENGTH_UNIT ( ) NAMED_UNIT ( * ) SI_UNIT ( .MILLI., .METRE. ) );
#213 =( NAMED_UNIT ( * ) PLANE_ANGLE_UNIT ( ) SI_UNIT ( $, .RADIAN. ) );
#214 =( NAMED_UNIT ( * ) SI_UNIT ( $, .STERADIAN. ) SOLID_ANGLE_UNIT ( ) );
#215 = CARTESIAN_POINT ( 'NONE',  ( 0.0000000000000000000, 0.0000000000000000000, 0.0000000000000000000 ) ) ;
#216 = DIRECTION ( 'NONE',  ( 0.0000000000000000000, 0.0000000000000000000, 1.000000000000000000 ) ) ;
#217 = DIRECTION ( 'NONE',  ( 1.000000000000000000, 0.0000000000000000000, 0.0000000000000000000 ) ) ;
#218 = APPLICATION_CONTEXT ( 'configuration controlled 3d designs of mechanical parts and assemblies' ) ;
#219 = APPLICATION_PROTOCOL_DEFINITION ( 'international standard', 'config_control_design', 1994, #218 ) ;
#220 = MECHANICAL_CONTEXT ( 'NONE', #218, 'mechanical' ) ;
#221 = PERSON_AND_ORGANIZATION_ROLE ( 'design_owner' ) ;
#222 = APPLICATION_CONTEXT ( 'configuration controlled 3d designs of mechanical parts and assemblies' ) ;
#223 = APPLICATION_PROTOCOL_DEFINITION ( 'international standard', 'config_control_design', 1994, #222 ) ;
#224 = APPROVAL_STATUS ( 'not_yet_approved' ) ;
#225 = APPROVAL_ROLE ( '' ) ;
#226 = PERSON_AND_ORGANIZATION_ROLE ( 'creator' ) ;
#227 = DATE_TIME_ROLE ( 'creation_date' ) ;
#228 = APPROVAL_STATUS ( 'not_yet_approved' ) ;
#229 = APPROVAL_ROLE ( '' ) ;
#230 = PERSON_AND_ORGANIZATION_ROLE ( 'creator' ) ;
#231 = PERSON_AND_ORGANIZATION_ROLE ( 'design_supplier' ) ;
#232 = SECURITY_CLASSIFICATION_LEVEL ( 'unclassified' ) ;
#233 = PERSON_AND_ORGANIZATION_ROLE ( 'classification_officer' ) ;
#234 = DATE_TIME_ROLE ( 'classification_date' ) ;
#235 = APPROVAL_STATUS ( 'not_yet_approved' ) ;
#236 = APPROVAL_ROLE ( '' ) ;
#237 = CC_DESIGN_DATE_AND_TIME_ASSIGNMENT ( #373, #234, ( #242 ) ) ;
#238 = APPROVAL ( #235, 'NON SPECIFICATO' ) ;
#239 = CC_DESIGN_APPROVAL ( #238, ( #242 ) ) ;
#240 = CC_DESIGN_SECURITY_CLASSIFICATION ( #242, ( #84 ) ) ;
#241 = PRODUCT_RELATED_PRODUCT_CATEGORY ( 'detail', '', ( #98 ) ) ;
#242 = SECURITY_CLASSIFICATION ( '', '', #232 ) ;
#243 = DESIGN_CONTEXT ( 'detailed design', #222, 'design' ) ;
#244 = PRODUCT_DEFINITION_SHAPE ( 'NONE', 'NONE',  #40 ) ;
#245 = CC_DESIGN_PERSON_AND_ORGANIZATION_ASSIGNMENT ( #370, #233, ( #242 ) ) ;
#246 = ADVANCED_BREP_SHAPE_REPRESENTATION ( '03130060', ( #247, #44 ), #109 ) ;
#247 = MANIFOLD_SOLID_BREP ( 'Rivoluzione1', #279 ) ;
#248 = CYLINDRICAL_SURFACE ( 'NONE', #51, 5.750000000000000000 ) ;
#249 = FACE_OUTER_BOUND ( 'NONE', #276, .T. ) ;
#250 = CYLINDRICAL_SURFACE ( 'NONE', #53, 5.750000000000000000 ) ;
#251 = FACE_OUTER_BOUND ( 'NONE', #283, .T. ) ;
#252 = CYLINDRICAL_SURFACE ( 'NONE', #52, 5.000000000000000000 ) ;
#253 = FACE_OUTER_BOUND ( 'NONE', #286, .T. ) ;
#254 = FACE_OUTER_BOUND ( 'NONE', #289, .T. ) ;
#255 = FACE_OUTER_BOUND ( 'NONE', #282, .T. ) ;
#256 = LINE ( 'NONE', #160, #55 ) ;
#257 = LINE ( 'NONE', #155, #58 ) ;
#258 = LINE ( 'NONE', #153, #60 ) ;
#259 = LINE ( 'NONE', #145, #65 ) ;
#260 = LINE ( 'NONE', #25, #87 ) ;
#261 = LINE ( 'NONE', #33, #76 ) ;
#262 = LINE ( 'NONE', #3, #81 ) ;
#263 = LINE ( 'NONE', #5, #82 ) ;
#264 = CYLINDRICAL_SURFACE ( 'NONE', #59, 4.500000000000000900 ) ;
#265 = ORIENTED_EDGE ( 'NONE', *, *, #110, .T. ) ;
#266 = ORIENTED_EDGE ( 'NONE', *, *, #132, .T. ) ;
#267 = ORIENTED_EDGE ( 'NONE', *, *, #111, .F. ) ;
#268 = ORIENTED_EDGE ( 'NONE', *, *, #113, .T. ) ;
#269 = ORIENTED_EDGE ( 'NONE', *, *, #116, .F. ) ;
#270 = ORIENTED_EDGE ( 'NONE', *, *, #112, .T. ) ;
#271 = ORIENTED_EDGE ( 'NONE', *, *, #115, .F. ) ;
#272 = ORIENTED_EDGE ( 'NONE', *, *, #114, .F. ) ;
#273 = ORIENTED_EDGE ( 'NONE', *, *, #131, .F. ) ;
#274 = ORIENTED_EDGE ( 'NONE', *, *, #116, .T. ) ;
#275 = ORIENTED_EDGE ( 'NONE', *, *, #117, .T. ) ;
#276 = EDGE_LOOP ( 'NONE', ( #318, #316, #317, #315 ) ) ;
#277 = EDGE_LOOP ( 'NONE', ( #303, #298 ) ) ;
#278 = EDGE_LOOP ( 'NONE', ( #305, #304, #307, #302 ) ) ;
#279 = CLOSED_SHELL ( 'NONE', ( #133, #134, #135, #136, #137, #138, #139, #140, #141, #142, #143 ) ) ;
#280 = EDGE_LOOP ( 'NONE', ( #292, #291 ) ) ;
#281 = EDGE_LOOP ( 'NONE', ( #294, #293 ) ) ;
#282 = EDGE_LOOP ( 'NONE', ( #271, #266, #265, #267 ) ) ;
#283 = EDGE_LOOP ( 'NONE', ( #322, #320, #321, #319 ) ) ;
#284 = EDGE_LOOP ( 'NONE', ( #310, #311 ) ) ;
#285 = EDGE_LOOP ( 'NONE', ( #309, #308, #314, #306 ) ) ;
#286 = EDGE_LOOP ( 'NONE', ( #274, #275, #273, #323 ) ) ;
#287 = EDGE_LOOP ( 'NONE', ( #297, #296, #295, #300 ) ) ;
#288 = EDGE_LOOP ( 'NONE', ( #301, #299 ) ) ;
#289 = EDGE_LOOP ( 'NONE', ( #268, #270, #269, #272 ) ) ;
#290 = EDGE_LOOP ( 'NONE', ( #313, #312 ) ) ;
#291 = ORIENTED_EDGE ( 'NONE', *, *, #110, .F. ) ;
#292 = ORIENTED_EDGE ( 'NONE', *, *, #118, .F. ) ;
#293 = ORIENTED_EDGE ( 'NONE', *, *, #124, .T. ) ;
#294 = ORIENTED_EDGE ( 'NONE', *, *, #127, .T. ) ;
#295 = ORIENTED_EDGE ( 'NONE', *, *, #111, .T. ) ;
#296 = ORIENTED_EDGE ( 'NONE', *, *, #119, .F. ) ;
#297 = ORIENTED_EDGE ( 'NONE', *, *, #132, .F. ) ;
#298 = ORIENTED_EDGE ( 'NONE', *, *, #121, .F. ) ;
#299 = ORIENTED_EDGE ( 'NONE', *, *, #115, .T. ) ;
#300 = ORIENTED_EDGE ( 'NONE', *, *, #118, .T. ) ;
#301 = ORIENTED_EDGE ( 'NONE', *, *, #119, .T. ) ;
#302 = ORIENTED_EDGE ( 'NONE', *, *, #122, .F. ) ;
#303 = ORIENTED_EDGE ( 'NONE', *, *, #113, .F. ) ;
#304 = ORIENTED_EDGE ( 'NONE', *, *, #121, .T. ) ;
#305 = ORIENTED_EDGE ( 'NONE', *, *, #112, .F. ) ;
#306 = ORIENTED_EDGE ( 'NONE', *, *, #123, .F. ) ;
#307 = ORIENTED_EDGE ( 'NONE', *, *, #114, .T. ) ;
#308 = ORIENTED_EDGE ( 'NONE', *, *, #122, .T. ) ;
#309 = ORIENTED_EDGE ( 'NONE', *, *, #117, .F. ) ;
#310 = ORIENTED_EDGE ( 'NONE', *, *, #128, .F. ) ;
#311 = ORIENTED_EDGE ( 'NONE', *, *, #125, .F. ) ;
#312 = ORIENTED_EDGE ( 'NONE', *, *, #123, .T. ) ;
#313 = ORIENTED_EDGE ( 'NONE', *, *, #131, .T. ) ;
#314 = ORIENTED_EDGE ( 'NONE', *, *, #130, .T. ) ;
#315 = ORIENTED_EDGE ( 'NONE', *, *, #124, .F. ) ;
#316 = ORIENTED_EDGE ( 'NONE', *, *, #125, .T. ) ;
#317 = ORIENTED_EDGE ( 'NONE', *, *, #126, .T. ) ;
#318 = ORIENTED_EDGE ( 'NONE', *, *, #129, .F. ) ;
#319 = ORIENTED_EDGE ( 'NONE', *, *, #126, .F. ) ;
#320 = ORIENTED_EDGE ( 'NONE', *, *, #129, .T. ) ;
#321 = ORIENTED_EDGE ( 'NONE', *, *, #127, .F. ) ;
#322 = ORIENTED_EDGE ( 'NONE', *, *, #128, .T. ) ;
#323 = ORIENTED_EDGE ( 'NONE', *, *, #130, .F. ) ;
#324 = VERTEX_POINT ( 'NONE', #198 ) ;
#325 = VERTEX_POINT ( 'NONE', #199 ) ;
#326 = VERTEX_POINT ( 'NONE', #200 ) ;
#327 = VERTEX_POINT ( 'NONE', #201 ) ;
#328 = VERTEX_POINT ( 'NONE', #202 ) ;
#329 = VERTEX_POINT ( 'NONE', #203 ) ;
#330 = VERTEX_POINT ( 'NONE', #204 ) ;
#331 = VERTEX_POINT ( 'NONE', #205 ) ;
#332 = VERTEX_POINT ( 'NONE', #206 ) ;
#333 = VERTEX_POINT ( 'NONE', #207 ) ;
#334 = VERTEX_POINT ( 'NONE', #208 ) ;
#335 = FACE_BOUND ( 'NONE', #280, .T. ) ;
#336 = FACE_OUTER_BOUND ( 'NONE', #281, .T. ) ;
#337 = CYLINDRICAL_SURFACE ( 'NONE', #47, 4.500000000000000900 ) ;
#338 = FACE_OUTER_BOUND ( 'NONE', #287, .T. ) ;
#339 = FACE_OUTER_BOUND ( 'NONE', #277, .T. ) ;
#340 = FACE_BOUND ( 'NONE', #288, .T. ) ;
#341 = FACE_BOUND ( 'NONE', #290, .T. ) ;
#342 = FACE_OUTER_BOUND ( 'NONE', #285, .T. ) ;
#343 = VERTEX_POINT ( 'NONE', #209 ) ;
#344 = FACE_OUTER_BOUND ( 'NONE', #278, .T. ) ;
#345 = FACE_OUTER_BOUND ( 'NONE', #284, .T. ) ;
#346 = CYLINDRICAL_SURFACE ( 'NONE', #49, 5.000000000000000000 ) ;
#347 = VERTEX_POINT ( 'NONE', #210 ) ;
#348 = VERTEX_POINT ( 'NONE', #211 ) ;
#349 = SHAPE_DEFINITION_REPRESENTATION ( #244, #246 ) ;
#350 = ORGANIZATION ( 'NON SPECIFICATO', 'NON SPECIFICATO', '' ) ;
#351 = PERSON_AND_ORGANIZATION ( #100, #350 ) ;
#352 = PERSON_AND_ORGANIZATION ( #100, #350 ) ;
#353 = APPROVAL_PERSON_ORGANIZATION ( #352, #39, #225 ) ;
#354 = COORDINATED_UNIVERSAL_TIME_OFFSET ( 1, 0, .AHEAD. ) ;
#355 = CALENDAR_DATE ( 2011, 7, 11 ) ;
#356 = DATE_AND_TIME ( #355, #144 ) ;
#357 = APPROVAL_DATE_TIME ( #356, #39 ) ;
#358 = PERSON_AND_ORGANIZATION ( #100, #350 ) ;
#359 = COORDINATED_UNIVERSAL_TIME_OFFSET ( 1, 0, .AHEAD. ) ;
#360 = CALENDAR_DATE ( 2011, 7, 11 ) ;
#361 = DATE_AND_TIME ( #360, #120 ) ;
#362 = PERSON_AND_ORGANIZATION ( #100, #350 ) ;
#363 = APPROVAL_PERSON_ORGANIZATION ( #362, #105, #229 ) ;
#364 = COORDINATED_UNIVERSAL_TIME_OFFSET ( 1, 0, .AHEAD. ) ;
#365 = CALENDAR_DATE ( 2011, 7, 11 ) ;
#366 = DATE_AND_TIME ( #365, #108 ) ;
#367 = APPROVAL_DATE_TIME ( #366, #105 ) ;
#368 = PERSON_AND_ORGANIZATION ( #100, #350 ) ;
#369 = PERSON_AND_ORGANIZATION ( #100, #350 ) ;
#370 = PERSON_AND_ORGANIZATION ( #100, #350 ) ;
#371 = COORDINATED_UNIVERSAL_TIME_OFFSET ( 1, 0, .AHEAD. ) ;
#372 = CALENDAR_DATE ( 2011, 7, 11 ) ;
#373 = DATE_AND_TIME ( #372, #107 ) ;
#374 = PERSON_AND_ORGANIZATION ( #100, #350 ) ;
#375 = APPROVAL_PERSON_ORGANIZATION ( #374, #238, #236 ) ;
#376 = COORDINATED_UNIVERSAL_TIME_OFFSET ( 1, 0, .AHEAD. ) ;
#377 = CALENDAR_DATE ( 2011, 7, 11 ) ;
#378 = DATE_AND_TIME ( #377, #106 ) ;
#379 = APPROVAL_DATE_TIME ( #378, #238 ) ;
ENDSEC;
END-ISO-10303-21;
