ISO-10303-21;
HEADER;
FILE_DESCRIPTION (( 'STEP AP203' ),
    '1' );
FILE_NAME ('03130050.STEP',
    '2011-11-07T10:45:57',
    ( '' ),
    ( 'sopra-pneumatic' ),
    'SwSTEP 2.0',
    'SolidWorks 2011',
    '' );
FILE_SCHEMA (( 'CONFIG_CONTROL_DESIGN' ));
ENDSEC;

DATA;
#1 = ADVANCED_FACE ( 'NONE', ( #299, #300 ), #97, .T. ) ;
#2 = EDGE_CURVE ( 'NONE', #255, #248, #301, .T. ) ;
#3 = EDGE_CURVE ( 'NONE', #254, #253, #374, .T. ) ;
#4 = EDGE_CURVE ( 'NONE', #247, #254, #303, .T. ) ;
#5 = ADVANCED_FACE ( 'NONE', ( #304 ), #302, .F. ) ;
#6 = ADVANCED_FACE ( 'NONE', ( #305 ), #166, .T. ) ;
#7 = ADVANCED_FACE ( 'NONE', ( #306 ), #307, .F. ) ;
#8 = ADVANCED_FACE ( 'NONE', ( #308 ), #167, .T. ) ;
#9 = ADVANCED_FACE ( 'NONE', ( #309 ), #310, .T. ) ;
#10 = ADVANCED_FACE ( 'NONE', ( #311 ), #312, .T. ) ;
#11 = EDGE_CURVE ( 'NONE', #247, #252, #173, .T. ) ;
#12 = EDGE_CURVE ( 'NONE', #243, #248, #175, .T. ) ;
#13 = ADVANCED_FACE ( 'NONE', ( #314 ), #313, .T. ) ;
#14 = EDGE_CURVE ( 'NONE', #255, #256, #177, .T. ) ;
#15 = ADVANCED_FACE ( 'NONE', ( #316, #317 ), #143, .T. ) ;
#16 = ADVANCED_FACE ( 'NONE', ( #315 ), #318, .T. ) ;
#17 = EDGE_CURVE ( 'NONE', #253, #254, #181, .T. ) ;
#18 = EDGE_CURVE ( 'NONE', #252, #247, #184, .T. ) ;
#19 = EDGE_CURVE ( 'NONE', #249, #250, #182, .T. ) ;
#20 = EDGE_CURVE ( 'NONE', #251, #246, #320, .T. ) ;
#21 =( GEOMETRIC_REPRESENTATION_CONTEXT ( 3 ) GLOBAL_UNCERTAINTY_ASSIGNED_CONTEXT ( ( #372 ) ) GLOBAL_UNIT_ASSIGNED_CONTEXT ( ( #54, #55, #56 ) ) REPRESENTATION_CONTEXT ( 'NONE', 'WORKASPACE' ) );
#22 = EDGE_CURVE ( 'NONE', #244, #251, #188, .T. ) ;
#23 = EDGE_CURVE ( 'NONE', #245, #246, #178, .T. ) ;
#24 = LOCAL_TIME ( 11, 45, 57.00000000000000000, #332 ) ;
#25 = EDGE_CURVE ( 'NONE', #254, #250, #321, .T. ) ;
#26 = EDGE_CURVE ( 'NONE', #253, #249, #322, .T. ) ;
#27 = ADVANCED_FACE ( 'NONE', ( #323, #324 ), #149, .T. ) ;
#28 = EDGE_CURVE ( 'NONE', #250, #249, #187, .T. ) ;
#29 = CARTESIAN_POINT ( 'NONE',  ( 0.0000000000000000000, 0.8000000000000003800, -4.000000000000000000 ) ) ;
#30 = CARTESIAN_POINT ( 'NONE',  ( 0.0000000000000000000, 0.8000000000000003800, -4.750000000000000000 ) ) ;
#31 = CARTESIAN_POINT ( 'NONE',  ( 4.714890176717309500E-016, 13.99999999999999800, 3.700000000000000200 ) ) ;
#32 = CARTESIAN_POINT ( 'NONE',  ( 4.898587196589412800E-016, 13.48038475772934000, 4.000000000000000000 ) ) ;
#33 = CARTESIAN_POINT ( 'NONE',  ( 0.0000000000000000000, 13.48038475772934000, -4.000000000000000000 ) ) ;
#34 = CARTESIAN_POINT ( 'NONE',  ( 0.0000000000000000000, 14.00000000000000200, -3.500000000000000000 ) ) ;
#35 = CARTESIAN_POINT ( 'NONE',  ( 4.286263797015737100E-016, 14.00000000000000200, 3.500000000000000000 ) ) ;
#36 = CARTESIAN_POINT ( 'NONE',  ( 4.898587196589412800E-016, 13.48038475772934000, 4.000000000000000000 ) ) ;
#37 = DIRECTION ( 'NONE',  ( 6.123233995736798100E-017, -0.8660254037844371500, 0.5000000000000026600 ) ) ;
#38 = CARTESIAN_POINT ( 'NONE',  ( 0.0000000000000000000, 0.8000000000000003800, 0.0000000000000000000 ) ) ;
#39 = DIRECTION ( 'NONE',  ( -0.0000000000000000000, -1.000000000000000000, -0.0000000000000000000 ) ) ;
#40 = DIRECTION ( 'NONE',  ( 0.0000000000000000000, 0.0000000000000000000, -1.000000000000000000 ) ) ;
#41 = CARTESIAN_POINT ( 'NONE',  ( 0.0000000000000000000, 14.00000000000000200, 0.0000000000000000000 ) ) ;
#42 = DIRECTION ( 'NONE',  ( -0.0000000000000000000, -1.000000000000000000, -0.0000000000000000000 ) ) ;
#43 = DIRECTION ( 'NONE',  ( 0.0000000000000000000, 0.0000000000000000000, -1.000000000000000000 ) ) ;
#44 = CARTESIAN_POINT ( 'NONE',  ( 0.0000000000000000000, 0.0000000000000000000, 0.0000000000000000000 ) ) ;
#45 = DIRECTION ( 'NONE',  ( -0.0000000000000000000, -1.000000000000000000, -0.0000000000000000000 ) ) ;
#46 = DIRECTION ( 'NONE',  ( 0.0000000000000000000, 0.0000000000000000000, -1.000000000000000000 ) ) ;
#47 = CARTESIAN_POINT ( 'NONE',  ( 4.286263797015737600E-016, -12.77979795290797000, 3.500000000000001300 ) ) ;
#48 = DIRECTION ( 'NONE',  ( -0.0000000000000000000, -1.000000000000000000, -0.0000000000000000000 ) ) ;
#49 = CARTESIAN_POINT ( 'NONE',  ( 5.817072295949927400E-016, -12.77979795290797000, 4.750000000000000000 ) ) ;
#50 = DIRECTION ( 'NONE',  ( -0.0000000000000000000, -1.000000000000000000, -0.0000000000000000000 ) ) ;
#51 = CARTESIAN_POINT ( 'NONE',  ( 0.0000000000000000000, 0.0000000000000000000, 0.0000000000000000000 ) ) ;
#52 = DIRECTION ( 'NONE',  ( -0.0000000000000000000, -1.000000000000000000, -0.0000000000000000000 ) ) ;
#53 = DIRECTION ( 'NONE',  ( 0.0000000000000000000, 0.0000000000000000000, -1.000000000000000000 ) ) ;
#54 =( LENGTH_UNIT ( ) NAMED_UNIT ( * ) SI_UNIT ( .MILLI., .METRE. ) );
#55 =( NAMED_UNIT ( * ) PLANE_ANGLE_UNIT ( ) SI_UNIT ( $, .RADIAN. ) );
#56 =( NAMED_UNIT ( * ) SI_UNIT ( $, .STERADIAN. ) SOLID_ANGLE_UNIT ( ) );
#57 = CARTESIAN_POINT ( 'NONE',  ( 0.0000000000000000000, 0.0000000000000000000, 0.0000000000000000000 ) ) ;
#58 = DIRECTION ( 'NONE',  ( 0.0000000000000000000, 0.0000000000000000000, 1.000000000000000000 ) ) ;
#59 = DIRECTION ( 'NONE',  ( 1.000000000000000000, 0.0000000000000000000, 0.0000000000000000000 ) ) ;
#60 = APPLICATION_CONTEXT ( 'configuration controlled 3d designs of mechanical parts and assemblies' ) ;
#61 = APPLICATION_PROTOCOL_DEFINITION ( 'international standard', 'config_control_design', 1994, #60 ) ;
#62 = MECHANICAL_CONTEXT ( 'NONE', #60, 'mechanical' ) ;
#63 = PERSON_AND_ORGANIZATION_ROLE ( 'design_owner' ) ;
#64 = APPLICATION_CONTEXT ( 'configuration controlled 3d designs of mechanical parts and assemblies' ) ;
#65 = APPLICATION_PROTOCOL_DEFINITION ( 'international standard', 'config_control_design', 1994, #64 ) ;
#66 = APPROVAL_STATUS ( 'not_yet_approved' ) ;
#67 = APPROVAL_ROLE ( '' ) ;
#68 = PERSON_AND_ORGANIZATION_ROLE ( 'creator' ) ;
#69 = DATE_TIME_ROLE ( 'creation_date' ) ;
#70 = APPROVAL_STATUS ( 'not_yet_approved' ) ;
#71 = APPROVAL_ROLE ( '' ) ;
#72 = PERSON_AND_ORGANIZATION_ROLE ( 'creator' ) ;
#73 = PERSON_AND_ORGANIZATION_ROLE ( 'design_supplier' ) ;
#74 = SECURITY_CLASSIFICATION_LEVEL ( 'unclassified' ) ;
#75 = PERSON_AND_ORGANIZATION_ROLE ( 'classification_officer' ) ;
#76 = DATE_TIME_ROLE ( 'classification_date' ) ;
#77 = APPROVAL_STATUS ( 'not_yet_approved' ) ;
#78 = APPROVAL_ROLE ( '' ) ;
#79 = CARTESIAN_POINT ( 'NONE',  ( 0.0000000000000000000, 0.0000000000000000000, -4.750000000000000000 ) ) ;
#80 = CARTESIAN_POINT ( 'NONE',  ( 0.0000000000000000000, 13.99999999999999800, -3.700000000000000200 ) ) ;
#81 = CARTESIAN_POINT ( 'NONE',  ( 0.0000000000000000000, 0.0000000000000000000, -3.500000000000002200 ) ) ;
#82 = CARTESIAN_POINT ( 'NONE',  ( 5.817072295949927400E-016, 0.0000000000000000000, 4.750000000000000000 ) ) ;
#83 = DIRECTION ( 'NONE',  ( -0.0000000000000000000, -1.000000000000000000, -0.0000000000000000000 ) ) ;
#84 = CARTESIAN_POINT ( 'NONE',  ( 0.0000000000000000000, 0.0000000000000000000, 0.0000000000000000000 ) ) ;
#85 = DIRECTION ( 'NONE',  ( 0.0000000000000000000, 0.0000000000000000000, -1.000000000000000000 ) ) ;
#86 = DIRECTION ( 'NONE',  ( 0.0000000000000000000, 0.0000000000000000000, -1.000000000000000000 ) ) ;
#87 = DIRECTION ( 'NONE',  ( 0.0000000000000000000, -1.000000000000000000, -0.0000000000000000000 ) ) ;
#88 = DIRECTION ( 'NONE',  ( -0.0000000000000000000, -1.000000000000000000, -0.0000000000000000000 ) ) ;
#89 = CARTESIAN_POINT ( 'NONE',  ( 0.0000000000000000000, 0.8000000000000003800, 0.0000000000000000000 ) ) ;
#90 = CARTESIAN_POINT ( 'NONE',  ( 0.0000000000000000000, 13.48038475772934000, 0.0000000000000000000 ) ) ;
#91 = DIRECTION ( 'NONE',  ( -0.0000000000000000000, -1.000000000000000000, -0.0000000000000000000 ) ) ;
#92 = DIRECTION ( 'NONE',  ( 0.0000000000000000000, 0.0000000000000000000, -1.000000000000000000 ) ) ;
#93 = CARTESIAN_POINT ( 'NONE',  ( 0.0000000000000000000, 13.48038475772934000, 0.0000000000000000000 ) ) ;
#94 = CARTESIAN_POINT ( 'NONE',  ( 0.0000000000000000000, 13.48038475772934000, -4.000000000000000000 ) ) ;
#95 = DIRECTION ( 'NONE',  ( 0.0000000000000000000, 0.0000000000000000000, -1.000000000000000000 ) ) ;
#96 = CARTESIAN_POINT ( 'NONE',  ( 5.817072295949927400E-016, 0.8000000000000003800, 4.750000000000000000 ) ) ;
#97 = PLANE ( 'NONE',  #375 ) ;
#98 = CARTESIAN_POINT ( 'NONE',  ( 3.500000000000002200, 0.0000000000000000000, 0.0000000000000000000 ) ) ;
#99 = CARTESIAN_POINT ( 'NONE',  ( 4.286263797015738600E-016, 0.0000000000000000000, 3.500000000000002200 ) ) ;
#100 = DIRECTION ( 'NONE',  ( 0.0000000000000000000, 0.0000000000000000000, -1.000000000000000000 ) ) ;
#101 = DIRECTION ( 'NONE',  ( -0.0000000000000000000, -1.000000000000000000, -0.0000000000000000000 ) ) ;
#102 = CARTESIAN_POINT ( 'NONE',  ( 0.0000000000000000000, 13.48038475772934000, 0.0000000000000000000 ) ) ;
#103 = DIRECTION ( 'NONE',  ( 0.0000000000000000000, 0.0000000000000000000, -1.000000000000000000 ) ) ;
#104 = DIRECTION ( 'NONE',  ( 0.0000000000000000000, 0.0000000000000000000, -1.000000000000000000 ) ) ;
#105 = DIRECTION ( 'NONE',  ( -0.0000000000000000000, -1.000000000000000000, -0.0000000000000000000 ) ) ;
#106 = DIRECTION ( 'NONE',  ( -0.0000000000000000000, -1.000000000000000000, -0.0000000000000000000 ) ) ;
#107 = DIRECTION ( 'NONE',  ( -0.0000000000000000000, -1.000000000000000000, -0.0000000000000000000 ) ) ;
#108 = DIRECTION ( 'NONE',  ( 0.0000000000000000000, 0.0000000000000000000, -1.000000000000000000 ) ) ;
#109 = CARTESIAN_POINT ( 'NONE',  ( 0.0000000000000000000, -12.77979795290797000, 0.0000000000000000000 ) ) ;
#110 = DIRECTION ( 'NONE',  ( -0.0000000000000000000, -1.000000000000000000, -0.0000000000000000000 ) ) ;
#111 = CARTESIAN_POINT ( 'NONE',  ( 0.0000000000000000000, 14.00000000000000200, 0.0000000000000000000 ) ) ;
#112 = DIRECTION ( 'NONE',  ( -0.0000000000000000000, -1.000000000000000000, -0.0000000000000000000 ) ) ;
#113 = DIRECTION ( 'NONE',  ( 0.0000000000000000000, 1.000000000000000000, 0.0000000000000000000 ) ) ;
#114 = CARTESIAN_POINT ( 'NONE',  ( 4.750000000000000000, 0.7999999999999999300, 0.0000000000000000000 ) ) ;
#115 = DIRECTION ( 'NONE',  ( -0.0000000000000000000, -1.000000000000000000, -0.0000000000000000000 ) ) ;
#116 = DIRECTION ( 'NONE',  ( 0.0000000000000000000, 0.0000000000000000000, -1.000000000000000000 ) ) ;
#117 = CARTESIAN_POINT ( 'NONE',  ( 0.0000000000000000000, -12.77979795290797000, 0.0000000000000000000 ) ) ;
#118 = CARTESIAN_POINT ( 'NONE',  ( 0.0000000000000000000, -12.77979795290797000, 0.0000000000000000000 ) ) ;
#119 = DIRECTION ( 'NONE',  ( 0.0000000000000000000, 0.0000000000000000000, -1.000000000000000000 ) ) ;
#120 = DIRECTION ( 'NONE',  ( -0.0000000000000000000, -1.000000000000000000, -0.0000000000000000000 ) ) ;
#121 = CARTESIAN_POINT ( 'NONE',  ( 0.0000000000000000000, 13.48038475772934000, 0.0000000000000000000 ) ) ;
#122 = DIRECTION ( 'NONE',  ( -0.0000000000000000000, -1.000000000000000000, -0.0000000000000000000 ) ) ;
#123 = CARTESIAN_POINT ( 'NONE',  ( 0.0000000000000000000, -12.77979795290797000, -4.000000000000000000 ) ) ;
#124 = DIRECTION ( 'NONE',  ( -0.0000000000000000000, -1.000000000000000000, -0.0000000000000000000 ) ) ;
#125 = CARTESIAN_POINT ( 'NONE',  ( 0.0000000000000000000, 13.99999999999999800, 0.0000000000000000000 ) ) ;
#126 = CARTESIAN_POINT ( 'NONE',  ( 0.0000000000000000000, 13.99999999999999800, 0.0000000000000000000 ) ) ;
#127 = DIRECTION ( 'NONE',  ( 0.0000000000000000000, 0.0000000000000000000, -1.000000000000000000 ) ) ;
#128 = DIRECTION ( 'NONE',  ( -0.0000000000000000000, -1.000000000000000000, -0.0000000000000000000 ) ) ;
#129 = DIRECTION ( 'NONE',  ( 0.0000000000000000000, -0.0000000000000000000, 1.000000000000000000 ) ) ;
#130 = DIRECTION ( 'NONE',  ( 0.0000000000000000000, 0.0000000000000000000, -1.000000000000000000 ) ) ;
#131 = CARTESIAN_POINT ( 'NONE',  ( 0.0000000000000000000, -12.77979795290797000, 0.0000000000000000000 ) ) ;
#132 = CARTESIAN_POINT ( 'NONE',  ( 0.0000000000000000000, -12.77979795290797000, -4.750000000000000000 ) ) ;
#133 = DIRECTION ( 'NONE',  ( 0.0000000000000000000, 0.0000000000000000000, -1.000000000000000000 ) ) ;
#134 = DIRECTION ( 'NONE',  ( -0.0000000000000000000, -1.000000000000000000, -0.0000000000000000000 ) ) ;
#135 = CARTESIAN_POINT ( 'NONE',  ( 0.0000000000000000000, 0.8000000000000003800, 0.0000000000000000000 ) ) ;
#136 = DIRECTION ( 'NONE',  ( 0.0000000000000000000, 0.0000000000000000000, -1.000000000000000000 ) ) ;
#137 = DIRECTION ( 'NONE',  ( -0.0000000000000000000, -1.000000000000000000, -0.0000000000000000000 ) ) ;
#138 = DIRECTION ( 'NONE',  ( 0.0000000000000000000, -0.0000000000000000000, 1.000000000000000000 ) ) ;
#139 = CARTESIAN_POINT ( 'NONE',  ( 0.0000000000000000000, 0.8000000000000003800, 0.0000000000000000000 ) ) ;
#140 = DIRECTION ( 'NONE',  ( 0.0000000000000000000, 0.0000000000000000000, -1.000000000000000000 ) ) ;
#141 = DIRECTION ( 'NONE',  ( 0.0000000000000000000, 0.0000000000000000000, -1.000000000000000000 ) ) ;
#142 = DIRECTION ( 'NONE',  ( 0.0000000000000000000, 0.0000000000000000000, -1.000000000000000000 ) ) ;
#143 = PLANE ( 'NONE',  #169 ) ;
#144 = CARTESIAN_POINT ( 'NONE',  ( 0.0000000000000000000, -12.77979795290797000, 0.0000000000000000000 ) ) ;
#145 = DIRECTION ( 'NONE',  ( -0.0000000000000000000, -1.000000000000000000, -0.0000000000000000000 ) ) ;
#146 = DIRECTION ( 'NONE',  ( 0.0000000000000000000, -0.8660254037844371500, -0.5000000000000026600 ) ) ;
#147 = CARTESIAN_POINT ( 'NONE',  ( 0.0000000000000000000, -12.77979795290797000, 0.0000000000000000000 ) ) ;
#148 = DIRECTION ( 'NONE',  ( 0.0000000000000000000, 0.0000000000000000000, -1.000000000000000000 ) ) ;
#149 = PLANE ( 'NONE',  #193 ) ;
#150 = CARTESIAN_POINT ( 'NONE',  ( 3.700000000000000200, 14.00000000000000000, 0.0000000000000000000 ) ) ;
#151 = DIRECTION ( 'NONE',  ( 0.0000000000000000000, 1.000000000000000000, 0.0000000000000000000 ) ) ;
#152 = DIRECTION ( 'NONE',  ( -0.0000000000000000000, -1.000000000000000000, -0.0000000000000000000 ) ) ;
#153 = DIRECTION ( 'NONE',  ( -0.0000000000000000000, -1.000000000000000000, -0.0000000000000000000 ) ) ;
#154 = CARTESIAN_POINT ( 'NONE',  ( 0.0000000000000000000, 0.0000000000000000000, 0.0000000000000000000 ) ) ;
#155 = DIRECTION ( 'NONE',  ( -0.0000000000000000000, -1.000000000000000000, -0.0000000000000000000 ) ) ;
#156 = DIRECTION ( 'NONE',  ( 0.0000000000000000000, 0.0000000000000000000, -1.000000000000000000 ) ) ;
#157 = DIRECTION ( 'NONE',  ( -0.0000000000000000000, -1.000000000000000000, -0.0000000000000000000 ) ) ;
#158 = DIRECTION ( 'NONE',  ( -0.0000000000000000000, -1.000000000000000000, -0.0000000000000000000 ) ) ;
#159 = CARTESIAN_POINT ( 'NONE',  ( 4.898587196589412800E-016, -12.77979795290797000, 4.000000000000000000 ) ) ;
#160 = CARTESIAN_POINT ( 'NONE',  ( 0.0000000000000000000, -12.77979795290797000, -3.500000000000001300 ) ) ;
#161 = AXIS2_PLACEMENT_3D ( 'NONE', #90, #122, #100 ) ;
#162 = VECTOR ( 'NONE', #83, 1000.000000000000000 ) ;
#163 = AXIS2_PLACEMENT_3D ( 'NONE', #102, #101, #95 ) ;
#164 = AXIS2_PLACEMENT_3D ( 'NONE', #93, #107, #108 ) ;
#165 = VECTOR ( 'NONE', #146, 1000.000000000000000 ) ;
#166 = CONICAL_SURFACE ( 'NONE', #163, 4.000000000000000000, 0.5235987755983019200 ) ;
#167 = CONICAL_SURFACE ( 'NONE', #164, 4.000000000000000000, 0.5235987755983019200 ) ;
#168 = AXIS2_PLACEMENT_3D ( 'NONE', #118, #91, #92 ) ;
#169 = AXIS2_PLACEMENT_3D ( 'NONE', #114, #113, #129 ) ;
#170 = AXIS2_PLACEMENT_3D ( 'NONE', #144, #88, #86 ) ;
#171 = AXIS2_PLACEMENT_3D ( 'NONE', #109, #105, #103 ) ;
#172 = AXIS2_PLACEMENT_3D ( 'NONE', #147, #112, #104 ) ;
#173 = CIRCLE ( 'NONE', #174, 3.700000000000000200 ) ;
#174 = AXIS2_PLACEMENT_3D ( 'NONE', #125, #124, #130 ) ;
#175 = CIRCLE ( 'NONE', #176, 3.500000000000002200 ) ;
#176 = AXIS2_PLACEMENT_3D ( 'NONE', #84, #145, #142 ) ;
#177 = CIRCLE ( 'NONE', #179, 3.500000000000000000 ) ;
#178 = CIRCLE ( 'NONE', #191, 4.750000000000000000 ) ;
#179 = AXIS2_PLACEMENT_3D ( 'NONE', #111, #110, #148 ) ;
#180 = AXIS2_PLACEMENT_3D ( 'NONE', #131, #120, #119 ) ;
#181 = CIRCLE ( 'NONE', #183, 4.000000000000000000 ) ;
#182 = CIRCLE ( 'NONE', #186, 4.000000000000000000 ) ;
#183 = AXIS2_PLACEMENT_3D ( 'NONE', #121, #128, #127 ) ;
#184 = CIRCLE ( 'NONE', #185, 3.700000000000000200 ) ;
#185 = AXIS2_PLACEMENT_3D ( 'NONE', #126, #137, #136 ) ;
#186 = AXIS2_PLACEMENT_3D ( 'NONE', #135, #134, #133 ) ;
#187 = CIRCLE ( 'NONE', #196, 4.000000000000000000 ) ;
#188 = CIRCLE ( 'NONE', #190, 4.750000000000000000 ) ;
#189 = VECTOR ( 'NONE', #115, 1000.000000000000000 ) ;
#190 = AXIS2_PLACEMENT_3D ( 'NONE', #89, #153, #156 ) ;
#191 = AXIS2_PLACEMENT_3D ( 'NONE', #154, #157, #141 ) ;
#192 = VECTOR ( 'NONE', #155, 1000.000000000000000 ) ;
#193 = AXIS2_PLACEMENT_3D ( 'NONE', #150, #151, #138 ) ;
#194 = VECTOR ( 'NONE', #158, 1000.000000000000000 ) ;
#195 = CIRCLE ( 'NONE', #206, 3.500000000000002200 ) ;
#196 = AXIS2_PLACEMENT_3D ( 'NONE', #139, #152, #140 ) ;
#197 = CIRCLE ( 'NONE', #200, 4.750000000000000000 ) ;
#198 = VECTOR ( 'NONE', #37, 1000.000000000000000 ) ;
#199 = CIRCLE ( 'NONE', #203, 4.750000000000000000 ) ;
#200 = AXIS2_PLACEMENT_3D ( 'NONE', #38, #39, #40 ) ;
#201 = CIRCLE ( 'NONE', #202, 3.500000000000000000 ) ;
#202 = AXIS2_PLACEMENT_3D ( 'NONE', #41, #42, #43 ) ;
#203 = AXIS2_PLACEMENT_3D ( 'NONE', #44, #45, #46 ) ;
#204 = VECTOR ( 'NONE', #48, 1000.000000000000000 ) ;
#205 = VECTOR ( 'NONE', #50, 1000.000000000000000 ) ;
#206 = AXIS2_PLACEMENT_3D ( 'NONE', #51, #52, #53 ) ;
#207 = AXIS2_PLACEMENT_3D ( 'NONE', #57, #58, #59 ) ;
#208 = CC_DESIGN_PERSON_AND_ORGANIZATION_ASSIGNMENT ( #329, #63, ( #371 ) ) ;
#209 = PRODUCT_DEFINITION ( 'NON CONOSCIUTO', '', #214, #369 ) ;
#210 = APPROVAL ( #66, 'NON SPECIFICATO' ) ;
#211 = CC_DESIGN_APPROVAL ( #210, ( #209 ) ) ;
#212 = CC_DESIGN_PERSON_AND_ORGANIZATION_ASSIGNMENT ( #336, #68, ( #209 ) ) ;
#213 = CC_DESIGN_DATE_AND_TIME_ASSIGNMENT ( #339, #69, ( #209 ) ) ;
#214 = PRODUCT_DEFINITION_FORMATION_WITH_SPECIFIED_SOURCE ( 'TUTTO', '', #371, .NOT_KNOWN. ) ;
#215 = APPROVAL ( #70, 'NON SPECIFICATO' ) ;
#216 = CC_DESIGN_APPROVAL ( #215, ( #214 ) ) ;
#217 = CC_DESIGN_PERSON_AND_ORGANIZATION_ASSIGNMENT ( #346, #72, ( #214 ) ) ;
#218 = CC_DESIGN_PERSON_AND_ORGANIZATION_ASSIGNMENT ( #347, #73, ( #214 ) ) ;
#219 = SECURITY_CLASSIFICATION ( '', '', #74 ) ;
#220 = CC_DESIGN_PERSON_AND_ORGANIZATION_ASSIGNMENT ( #348, #75, ( #219 ) ) ;
#221 = CC_DESIGN_DATE_AND_TIME_ASSIGNMENT ( #351, #76, ( #219 ) ) ;
#222 = APPROVAL ( #77, 'NON SPECIFICATO' ) ;
#223 = CC_DESIGN_APPROVAL ( #222, ( #219 ) ) ;
#224 = CC_DESIGN_SECURITY_CLASSIFICATION ( #219, ( #214 ) ) ;
#225 = PRODUCT_RELATED_PRODUCT_CATEGORY ( 'detail', '', ( #371 ) ) ;
#226 = ORIENTED_EDGE ( 'NONE', *, *, #20, .T. ) ;
#227 = ORIENTED_EDGE ( 'NONE', *, *, #367, .F. ) ;
#228 = ORIENTED_EDGE ( 'NONE', *, *, #22, .T. ) ;
#229 = ORIENTED_EDGE ( 'NONE', *, *, #23, .F. ) ;
#230 = ORIENTED_EDGE ( 'NONE', *, *, #25, .T. ) ;
#231 = ORIENTED_EDGE ( 'NONE', *, *, #28, .T. ) ;
#232 = ORIENTED_EDGE ( 'NONE', *, *, #19, .T. ) ;
#233 = ORIENTED_EDGE ( 'NONE', *, *, #22, .F. ) ;
#234 = ORIENTED_EDGE ( 'NONE', *, *, #359, .F. ) ;
#235 = ORIENTED_EDGE ( 'NONE', *, *, #26, .F. ) ;
#236 = ORIENTED_EDGE ( 'NONE', *, *, #17, .T. ) ;
#237 = ORIENTED_EDGE ( 'NONE', *, *, #4, .T. ) ;
#238 = ORIENTED_EDGE ( 'NONE', *, *, #19, .F. ) ;
#239 = ORIENTED_EDGE ( 'NONE', *, *, #358, .F. ) ;
#240 = ORIENTED_EDGE ( 'NONE', *, *, #18, .T. ) ;
#241 = ORIENTED_EDGE ( 'NONE', *, *, #17, .F. ) ;
#242 = ORIENTED_EDGE ( 'NONE', *, *, #14, .T. ) ;
#243 = VERTEX_POINT ( 'NONE', #99 ) ;
#244 = VERTEX_POINT ( 'NONE', #96 ) ;
#245 = VERTEX_POINT ( 'NONE', #82 ) ;
#246 = VERTEX_POINT ( 'NONE', #79 ) ;
#247 = VERTEX_POINT ( 'NONE', #80 ) ;
#248 = VERTEX_POINT ( 'NONE', #81 ) ;
#249 = VERTEX_POINT ( 'NONE', #377 ) ;
#250 = VERTEX_POINT ( 'NONE', #29 ) ;
#251 = VERTEX_POINT ( 'NONE', #30 ) ;
#252 = VERTEX_POINT ( 'NONE', #31 ) ;
#253 = VERTEX_POINT ( 'NONE', #32 ) ;
#254 = VERTEX_POINT ( 'NONE', #33 ) ;
#255 = VERTEX_POINT ( 'NONE', #34 ) ;
#256 = VERTEX_POINT ( 'NONE', #35 ) ;
#257 = CLOSED_SHELL ( 'NONE', ( #5, #6, #9, #10, #13, #15, #16, #8, #27, #7, #1 ) ) ;
#258 = EDGE_LOOP ( 'NONE', ( #289, #290 ) ) ;
#259 = EDGE_LOOP ( 'NONE', ( #284, #285 ) ) ;
#260 = EDGE_LOOP ( 'NONE', ( #291, #292 ) ) ;
#261 = EDGE_LOOP ( 'NONE', ( #242, #283 ) ) ;
#262 = EDGE_LOOP ( 'NONE', ( #286, #287, #288, #274 ) ) ;
#263 = EDGE_LOOP ( 'NONE', ( #239, #240, #237, #241 ) ) ;
#264 = EDGE_LOOP ( 'NONE', ( #235, #236, #230, #238 ) ) ;
#265 = EDGE_LOOP ( 'NONE', ( #234, #233 ) ) ;
#266 = EDGE_LOOP ( 'NONE', ( #231, #232 ) ) ;
#267 = EDGE_LOOP ( 'NONE', ( #295, #296, #297, #282 ) ) ;
#268 = EDGE_LOOP ( 'NONE', ( #271, #273, #272, #275 ) ) ;
#269 = EDGE_LOOP ( 'NONE', ( #227, #228, #226, #229 ) ) ;
#270 = ORIENTED_EDGE ( 'NONE', *, *, #4, .F. ) ;
#271 = ORIENTED_EDGE ( 'NONE', *, *, #3, .T. ) ;
#272 = ORIENTED_EDGE ( 'NONE', *, *, #28, .F. ) ;
#273 = ORIENTED_EDGE ( 'NONE', *, *, #26, .T. ) ;
#274 = ORIENTED_EDGE ( 'NONE', *, *, #368, .T. ) ;
#275 = ORIENTED_EDGE ( 'NONE', *, *, #25, .F. ) ;
#276 = ORIENTED_EDGE ( 'NONE', *, *, #11, .T. ) ;
#277 = ORIENTED_EDGE ( 'NONE', *, *, #366, .T. ) ;
#278 = ORIENTED_EDGE ( 'NONE', *, *, #2, .F. ) ;
#279 = ORIENTED_EDGE ( 'NONE', *, *, #12, .T. ) ;
#280 = ORIENTED_EDGE ( 'NONE', *, *, #358, .T. ) ;
#281 = ORIENTED_EDGE ( 'NONE', *, *, #3, .F. ) ;
#282 = ORIENTED_EDGE ( 'NONE', *, *, #20, .F. ) ;
#283 = ORIENTED_EDGE ( 'NONE', *, *, #360, .T. ) ;
#284 = ORIENTED_EDGE ( 'NONE', *, *, #11, .F. ) ;
#285 = ORIENTED_EDGE ( 'NONE', *, *, #18, .F. ) ;
#286 = ORIENTED_EDGE ( 'NONE', *, *, #366, .F. ) ;
#287 = ORIENTED_EDGE ( 'NONE', *, *, #14, .F. ) ;
#288 = ORIENTED_EDGE ( 'NONE', *, *, #2, .T. ) ;
#289 = ORIENTED_EDGE ( 'NONE', *, *, #364, .T. ) ;
#290 = ORIENTED_EDGE ( 'NONE', *, *, #23, .T. ) ;
#291 = ORIENTED_EDGE ( 'NONE', *, *, #368, .F. ) ;
#292 = ORIENTED_EDGE ( 'NONE', *, *, #12, .F. ) ;
#293 = EDGE_LOOP ( 'NONE', ( #298, #277, #279, #278 ) ) ;
#294 = EDGE_LOOP ( 'NONE', ( #276, #280, #281, #270 ) ) ;
#295 = ORIENTED_EDGE ( 'NONE', *, *, #359, .T. ) ;
#296 = ORIENTED_EDGE ( 'NONE', *, *, #367, .T. ) ;
#297 = ORIENTED_EDGE ( 'NONE', *, *, #364, .F. ) ;
#298 = ORIENTED_EDGE ( 'NONE', *, *, #360, .F. ) ;
#299 = FACE_OUTER_BOUND ( 'NONE', #258, .T. ) ;
#300 = FACE_BOUND ( 'NONE', #260, .T. ) ;
#301 = LINE ( 'NONE', #160, #162 ) ;
#302 = CYLINDRICAL_SURFACE ( 'NONE', #376, 3.500000000000001300 ) ;
#303 = LINE ( 'NONE', #94, #165 ) ;
#304 = FACE_OUTER_BOUND ( 'NONE', #293, .T. ) ;
#305 = FACE_OUTER_BOUND ( 'NONE', #294, .T. ) ;
#306 = FACE_OUTER_BOUND ( 'NONE', #262, .T. ) ;
#307 = CYLINDRICAL_SURFACE ( 'NONE', #168, 3.500000000000001300 ) ;
#308 = FACE_OUTER_BOUND ( 'NONE', #263, .T. ) ;
#309 = FACE_OUTER_BOUND ( 'NONE', #268, .T. ) ;
#310 = CYLINDRICAL_SURFACE ( 'NONE', #171, 4.000000000000000000 ) ;
#311 = FACE_OUTER_BOUND ( 'NONE', #267, .T. ) ;
#312 = CYLINDRICAL_SURFACE ( 'NONE', #170, 4.750000000000000000 ) ;
#313 = CYLINDRICAL_SURFACE ( 'NONE', #172, 4.750000000000000000 ) ;
#314 = FACE_OUTER_BOUND ( 'NONE', #269, .T. ) ;
#315 = FACE_OUTER_BOUND ( 'NONE', #264, .T. ) ;
#316 = FACE_BOUND ( 'NONE', #266, .T. ) ;
#317 = FACE_OUTER_BOUND ( 'NONE', #265, .T. ) ;
#318 = CYLINDRICAL_SURFACE ( 'NONE', #180, 4.000000000000000000 ) ;
#319 = LINE ( 'NONE', #36, #198 ) ;
#320 = LINE ( 'NONE', #132, #189 ) ;
#321 = LINE ( 'NONE', #123, #192 ) ;
#322 = LINE ( 'NONE', #159, #194 ) ;
#323 = FACE_BOUND ( 'NONE', #261, .T. ) ;
#324 = FACE_OUTER_BOUND ( 'NONE', #259, .T. ) ;
#325 = LINE ( 'NONE', #47, #204 ) ;
#326 = LINE ( 'NONE', #49, #205 ) ;
#327 = SHAPE_DEFINITION_REPRESENTATION ( #370, #379 ) ;
#328 = ORGANIZATION ( 'NON SPECIFICATO', 'NON SPECIFICATO', '' ) ;
#329 = PERSON_AND_ORGANIZATION ( #373, #328 ) ;
#330 = PERSON_AND_ORGANIZATION ( #373, #328 ) ;
#331 = APPROVAL_PERSON_ORGANIZATION ( #330, #210, #67 ) ;
#332 = COORDINATED_UNIVERSAL_TIME_OFFSET ( 1, 0, .AHEAD. ) ;
#333 = CALENDAR_DATE ( 2011, 7, 11 ) ;
#334 = DATE_AND_TIME ( #333, #24 ) ;
#335 = APPROVAL_DATE_TIME ( #334, #210 ) ;
#336 = PERSON_AND_ORGANIZATION ( #373, #328 ) ;
#337 = COORDINATED_UNIVERSAL_TIME_OFFSET ( 1, 0, .AHEAD. ) ;
#338 = CALENDAR_DATE ( 2011, 7, 11 ) ;
#339 = DATE_AND_TIME ( #338, #363 ) ;
#340 = PERSON_AND_ORGANIZATION ( #373, #328 ) ;
#341 = APPROVAL_PERSON_ORGANIZATION ( #340, #215, #71 ) ;
#342 = COORDINATED_UNIVERSAL_TIME_OFFSET ( 1, 0, .AHEAD. ) ;
#343 = CALENDAR_DATE ( 2011, 7, 11 ) ;
#344 = DATE_AND_TIME ( #343, #361 ) ;
#345 = APPROVAL_DATE_TIME ( #344, #215 ) ;
#346 = PERSON_AND_ORGANIZATION ( #373, #328 ) ;
#347 = PERSON_AND_ORGANIZATION ( #373, #328 ) ;
#348 = PERSON_AND_ORGANIZATION ( #373, #328 ) ;
#349 = COORDINATED_UNIVERSAL_TIME_OFFSET ( 1, 0, .AHEAD. ) ;
#350 = CALENDAR_DATE ( 2011, 7, 11 ) ;
#351 = DATE_AND_TIME ( #350, #365 ) ;
#352 = PERSON_AND_ORGANIZATION ( #373, #328 ) ;
#353 = APPROVAL_PERSON_ORGANIZATION ( #352, #222, #78 ) ;
#354 = COORDINATED_UNIVERSAL_TIME_OFFSET ( 1, 0, .AHEAD. ) ;
#355 = CALENDAR_DATE ( 2011, 7, 11 ) ;
#356 = DATE_AND_TIME ( #355, #362 ) ;
#357 = APPROVAL_DATE_TIME ( #356, #222 ) ;
#358 = EDGE_CURVE ( 'NONE', #252, #253, #319, .T. ) ;
#359 = EDGE_CURVE ( 'NONE', #251, #244, #197, .T. ) ;
#360 = EDGE_CURVE ( 'NONE', #256, #255, #201, .T. ) ;
#361 = LOCAL_TIME ( 11, 45, 57.00000000000000000, #342 ) ;
#362 = LOCAL_TIME ( 11, 45, 57.00000000000000000, #354 ) ;
#363 = LOCAL_TIME ( 11, 45, 57.00000000000000000, #337 ) ;
#364 = EDGE_CURVE ( 'NONE', #246, #245, #199, .T. ) ;
#365 = LOCAL_TIME ( 11, 45, 57.00000000000000000, #349 ) ;
#366 = EDGE_CURVE ( 'NONE', #256, #243, #325, .T. ) ;
#367 = EDGE_CURVE ( 'NONE', #244, #245, #326, .T. ) ;
#368 = EDGE_CURVE ( 'NONE', #248, #243, #195, .T. ) ;
#369 = DESIGN_CONTEXT ( 'detailed design', #64, 'design' ) ;
#370 = PRODUCT_DEFINITION_SHAPE ( 'NONE', 'NONE',  #209 ) ;
#371 = PRODUCT ( '03130050', '03130050', '', ( #62 ) ) ;
#372 = UNCERTAINTY_MEASURE_WITH_UNIT (LENGTH_MEASURE( 1.000000000000000100E-005 ), #54, 'distance_accuracy_value', 'NONE');
#373 = PERSON ( 'NON SPECIFICATO', 'NON SPECIFICATO', 'NON SPECIFICATO', ('NON SPECIFICATO'), ('NON SPECIFICATO'), ('NON SPECIFICATO') ) ;
#374 = CIRCLE ( 'NONE', #161, 4.000000000000000000 ) ;
#375 = AXIS2_PLACEMENT_3D ( 'NONE', #98, #87, #85 ) ;
#376 = AXIS2_PLACEMENT_3D ( 'NONE', #117, #106, #116 ) ;
#377 = CARTESIAN_POINT ( 'NONE',  ( 4.898587196589412800E-016, 0.8000000000000003800, 4.000000000000000000 ) ) ;
#378 = MANIFOLD_SOLID_BREP ( 'Rivoluzione1', #257 ) ;
#379 = ADVANCED_BREP_SHAPE_REPRESENTATION ( '03130050', ( #378, #207 ), #21 ) ;
ENDSEC;
END-ISO-10303-21;
