ISO-10303-21;
HEADER;
FILE_DESCRIPTION (( 'STEP AP203' ),
    '1' );
FILE_NAME ('03130040.STEP',
    '2011-11-07T10:39:12',
    ( '' ),
    ( 'sopra-pneumatic' ),
    'SwSTEP 2.0',
    'SolidWorks 2011',
    '' );
FILE_SCHEMA (( 'CONFIG_CONTROL_DESIGN' ));
ENDSEC;

DATA;
#1 = CARTESIAN_POINT ( 'NONE',  ( 0.0000000000000000000, 0.5999999999999998700, -3.000000000000000000 ) ) ;
#2 = CARTESIAN_POINT ( 'NONE',  ( 0.0000000000000000000, 0.5999999999999998700, -3.750000000000000000 ) ) ;
#3 = CARTESIAN_POINT ( 'NONE',  ( 4.592425496802574000E-016, 0.5999999999999998700, 3.750000000000000000 ) ) ;
#4 = CARTESIAN_POINT ( 'NONE',  ( 4.592425496802574000E-016, 0.0000000000000000000, 3.750000000000000000 ) ) ;
#5 = CARTESIAN_POINT ( 'NONE',  ( 0.0000000000000000000, 0.0000000000000000000, -3.750000000000000000 ) ) ;
#6 =( LENGTH_UNIT ( ) NAMED_UNIT ( * ) SI_UNIT ( .MILLI., .METRE. ) );
#7 =( NAMED_UNIT ( * ) PLANE_ANGLE_UNIT ( ) SI_UNIT ( $, .RADIAN. ) );
#8 =( NAMED_UNIT ( * ) SI_UNIT ( $, .STERADIAN. ) SOLID_ANGLE_UNIT ( ) );
#9 = CARTESIAN_POINT ( 'NONE',  ( 0.0000000000000000000, 0.0000000000000000000, 0.0000000000000000000 ) ) ;
#10 = DIRECTION ( 'NONE',  ( 0.0000000000000000000, 0.0000000000000000000, 1.000000000000000000 ) ) ;
#11 = DIRECTION ( 'NONE',  ( 1.000000000000000000, 0.0000000000000000000, 0.0000000000000000000 ) ) ;
#12 = APPLICATION_CONTEXT ( 'configuration controlled 3d designs of mechanical parts and assemblies' ) ;
#13 = APPLICATION_PROTOCOL_DEFINITION ( 'international standard', 'config_control_design', 1994, #12 ) ;
#14 = MECHANICAL_CONTEXT ( 'NONE', #12, 'mechanical' ) ;
#15 = PERSON_AND_ORGANIZATION_ROLE ( 'design_owner' ) ;
#16 = APPLICATION_CONTEXT ( 'configuration controlled 3d designs of mechanical parts and assemblies' ) ;
#17 = APPLICATION_PROTOCOL_DEFINITION ( 'international standard', 'config_control_design', 1994, #16 ) ;
#18 = APPROVAL_STATUS ( 'not_yet_approved' ) ;
#19 = APPROVAL_ROLE ( '' ) ;
#20 = PERSON_AND_ORGANIZATION_ROLE ( 'creator' ) ;
#21 = DATE_TIME_ROLE ( 'creation_date' ) ;
#22 = APPROVAL_STATUS ( 'not_yet_approved' ) ;
#23 = APPROVAL_ROLE ( '' ) ;
#24 = PERSON_AND_ORGANIZATION_ROLE ( 'creator' ) ;
#25 = PERSON_AND_ORGANIZATION_ROLE ( 'design_supplier' ) ;
#26 = SECURITY_CLASSIFICATION_LEVEL ( 'unclassified' ) ;
#27 = PERSON_AND_ORGANIZATION_ROLE ( 'classification_officer' ) ;
#28 = DATE_TIME_ROLE ( 'classification_date' ) ;
#29 = APPROVAL_STATUS ( 'not_yet_approved' ) ;
#30 = APPROVAL_ROLE ( '' ) ;
#31 = LOCAL_TIME ( 11, 39, 12.00000000000000000, #264 ) ;
#32 = LOCAL_TIME ( 11, 39, 12.00000000000000000, #269 ) ;
#33 =( GEOMETRIC_REPRESENTATION_CONTEXT ( 3 ) GLOBAL_UNCERTAINTY_ASSIGNED_CONTEXT ( ( #139 ) ) GLOBAL_UNIT_ASSIGNED_CONTEXT ( ( #6, #7, #8 ) ) REPRESENTATION_CONTEXT ( 'NONE', 'WORKASPACE' ) );
#34 = LOCAL_TIME ( 11, 39, 12.00000000000000000, #257 ) ;
#35 = LOCAL_TIME ( 11, 39, 12.00000000000000000, #252 ) ;
#36 = LOCAL_TIME ( 11, 39, 12.00000000000000000, #247 ) ;
#37 = EDGE_CURVE ( 'NONE', #158, #159, #72, .T. ) ;
#38 = EDGE_CURVE ( 'NONE', #161, #160, #71, .T. ) ;
#39 = EDGE_CURVE ( 'NONE', #162, #163, #75, .T. ) ;
#40 = EDGE_CURVE ( 'NONE', #164, #165, #77, .T. ) ;
#41 = EDGE_CURVE ( 'NONE', #168, #169, #79, .T. ) ;
#42 = EDGE_CURVE ( 'NONE', #167, #166, #81, .T. ) ;
#43 = EDGE_CURVE ( 'NONE', #166, #169, #215, .T. ) ;
#44 = EDGE_CURVE ( 'NONE', #169, #168, #83, .T. ) ;
#45 = EDGE_CURVE ( 'NONE', #166, #167, #74, .T. ) ;
#46 = EDGE_CURVE ( 'NONE', #167, #168, #216, .T. ) ;
#47 = EDGE_CURVE ( 'NONE', #163, #165, #217, .T. ) ;
#48 = EDGE_CURVE ( 'NONE', #165, #164, #87, .T. ) ;
#49 = EDGE_CURVE ( 'NONE', #162, #164, #218, .T. ) ;
#50 = EDGE_CURVE ( 'NONE', #160, #163, #219, .T. ) ;
#51 = EDGE_CURVE ( 'NONE', #163, #162, #92, .T. ) ;
#52 = EDGE_CURVE ( 'NONE', #160, #161, #89, .T. ) ;
#53 = EDGE_CURVE ( 'NONE', #158, #157, #220, .T. ) ;
#54 = EDGE_CURVE ( 'NONE', #161, #162, #221, .T. ) ;
#55 = EDGE_CURVE ( 'NONE', #156, #157, #98, .T. ) ;
#56 = EDGE_CURVE ( 'NONE', #159, #156, #222, .T. ) ;
#57 = EDGE_CURVE ( 'NONE', #159, #158, #103, .T. ) ;
#58 = ADVANCED_FACE ( 'NONE', ( #223 ), #104, .T. ) ;
#59 = ADVANCED_FACE ( 'NONE', ( #214 ), #224, .F. ) ;
#60 = ADVANCED_FACE ( 'NONE', ( #225 ), #226, .T. ) ;
#61 = ADVANCED_FACE ( 'NONE', ( #227 ), #228, .T. ) ;
#62 = ADVANCED_FACE ( 'NONE', ( #229 ), #230, .T. ) ;
#63 = ADVANCED_FACE ( 'NONE', ( #231, #232 ), #343, .T. ) ;
#64 = ADVANCED_FACE ( 'NONE', ( #233 ), #234, .T. ) ;
#65 = ADVANCED_FACE ( 'NONE', ( #235 ), #111, .T. ) ;
#66 = ADVANCED_FACE ( 'NONE', ( #236, #237 ), #353, .T. ) ;
#67 = ADVANCED_FACE ( 'NONE', ( #238 ), #239, .F. ) ;
#68 = ADVANCED_FACE ( 'NONE', ( #240, #241 ), #360, .T. ) ;
#69 = EDGE_CURVE ( 'NONE', #157, #156, #115, .T. ) ;
#70 = AXIS2_PLACEMENT_3D ( 'NONE', #276, #277, #278 ) ;
#71 = CIRCLE ( 'NONE', #70, 2.700000000000000200 ) ;
#72 = CIRCLE ( 'NONE', #73, 2.500000000000000000 ) ;
#73 = AXIS2_PLACEMENT_3D ( 'NONE', #273, #274, #275 ) ;
#74 = CIRCLE ( 'NONE', #86, 3.750000000000000000 ) ;
#75 = CIRCLE ( 'NONE', #76, 3.000000000000000000 ) ;
#76 = AXIS2_PLACEMENT_3D ( 'NONE', #279, #280, #281 ) ;
#77 = CIRCLE ( 'NONE', #78, 3.000000000000000000 ) ;
#78 = AXIS2_PLACEMENT_3D ( 'NONE', #282, #283, #284 ) ;
#79 = CIRCLE ( 'NONE', #80, 3.750000000000000000 ) ;
#80 = AXIS2_PLACEMENT_3D ( 'NONE', #285, #286, #287 ) ;
#81 = CIRCLE ( 'NONE', #82, 3.750000000000000000 ) ;
#82 = AXIS2_PLACEMENT_3D ( 'NONE', #288, #289, #290 ) ;
#83 = CIRCLE ( 'NONE', #85, 3.750000000000000000 ) ;
#84 = VECTOR ( 'NONE', #292, 1000.000000000000000 ) ;
#85 = AXIS2_PLACEMENT_3D ( 'NONE', #293, #294, #295 ) ;
#86 = AXIS2_PLACEMENT_3D ( 'NONE', #296, #297, #298 ) ;
#87 = CIRCLE ( 'NONE', #91, 3.000000000000000000 ) ;
#88 = VECTOR ( 'NONE', #300, 1000.000000000000000 ) ;
#89 = CIRCLE ( 'NONE', #97, 2.700000000000000200 ) ;
#90 = VECTOR ( 'NONE', #302, 1000.000000000000000 ) ;
#91 = AXIS2_PLACEMENT_3D ( 'NONE', #303, #304, #305 ) ;
#92 = CIRCLE ( 'NONE', #95, 3.000000000000000000 ) ;
#93 = VECTOR ( 'NONE', #307, 1000.000000000000000 ) ;
#94 = VECTOR ( 'NONE', #309, 1000.000000000000000 ) ;
#95 = AXIS2_PLACEMENT_3D ( 'NONE', #310, #311, #312 ) ;
#96 = AXIS2_PLACEMENT_3D ( 'NONE', #328, #329, #330 ) ;
#97 = AXIS2_PLACEMENT_3D ( 'NONE', #313, #314, #315 ) ;
#98 = CIRCLE ( 'NONE', #102, 2.500000000000001300 ) ;
#99 = VECTOR ( 'NONE', #317, 1000.000000000000000 ) ;
#100 = AXIS2_PLACEMENT_3D ( 'NONE', #334, #335, #336 ) ;
#101 = VECTOR ( 'NONE', #319, 1000.000000000000000 ) ;
#102 = AXIS2_PLACEMENT_3D ( 'NONE', #320, #321, #322 ) ;
#103 = CIRCLE ( 'NONE', #106, 2.500000000000000000 ) ;
#104 = CONICAL_SURFACE ( 'NONE', #96, 3.000000000000000000, 0.5235987755983019200 ) ;
#105 = VECTOR ( 'NONE', #324, 1000.000000000000000 ) ;
#106 = AXIS2_PLACEMENT_3D ( 'NONE', #325, #326, #327 ) ;
#107 = AXIS2_PLACEMENT_3D ( 'NONE', #350, #351, #352 ) ;
#108 = AXIS2_PLACEMENT_3D ( 'NONE', #331, #332, #333 ) ;
#109 = AXIS2_PLACEMENT_3D ( 'NONE', #337, #338, #339 ) ;
#110 = AXIS2_PLACEMENT_3D ( 'NONE', #340, #341, #342 ) ;
#111 = CONICAL_SURFACE ( 'NONE', #107, 3.000000000000000000, 0.5235987755983019200 ) ;
#112 = AXIS2_PLACEMENT_3D ( 'NONE', #347, #348, #349 ) ;
#113 = AXIS2_PLACEMENT_3D ( 'NONE', #344, #345, #346 ) ;
#114 = AXIS2_PLACEMENT_3D ( 'NONE', #357, #358, #359 ) ;
#115 = CIRCLE ( 'NONE', #118, 2.500000000000001300 ) ;
#116 = AXIS2_PLACEMENT_3D ( 'NONE', #354, #355, #356 ) ;
#117 = AXIS2_PLACEMENT_3D ( 'NONE', #361, #362, #363 ) ;
#118 = AXIS2_PLACEMENT_3D ( 'NONE', #364, #365, #366 ) ;
#119 = AXIS2_PLACEMENT_3D ( 'NONE', #9, #10, #11 ) ;
#120 = CC_DESIGN_PERSON_AND_ORGANIZATION_ASSIGNMENT ( #244, #15, ( #138 ) ) ;
#121 = PRODUCT_DEFINITION ( 'NON CONOSCIUTO', '', #126, #378 ) ;
#122 = APPROVAL ( #18, 'NON SPECIFICATO' ) ;
#123 = CC_DESIGN_APPROVAL ( #122, ( #121 ) ) ;
#124 = CC_DESIGN_PERSON_AND_ORGANIZATION_ASSIGNMENT ( #251, #20, ( #121 ) ) ;
#125 = CC_DESIGN_DATE_AND_TIME_ASSIGNMENT ( #254, #21, ( #121 ) ) ;
#126 = PRODUCT_DEFINITION_FORMATION_WITH_SPECIFIED_SOURCE ( 'TUTTO', '', #138, .NOT_KNOWN. ) ;
#127 = APPROVAL ( #22, 'NON SPECIFICATO' ) ;
#128 = CC_DESIGN_APPROVAL ( #127, ( #126 ) ) ;
#129 = CC_DESIGN_PERSON_AND_ORGANIZATION_ASSIGNMENT ( #261, #24, ( #126 ) ) ;
#130 = CC_DESIGN_PERSON_AND_ORGANIZATION_ASSIGNMENT ( #262, #25, ( #126 ) ) ;
#131 = SECURITY_CLASSIFICATION ( '', '', #26 ) ;
#132 = CC_DESIGN_PERSON_AND_ORGANIZATION_ASSIGNMENT ( #263, #27, ( #131 ) ) ;
#133 = CC_DESIGN_DATE_AND_TIME_ASSIGNMENT ( #266, #28, ( #131 ) ) ;
#134 = APPROVAL ( #29, 'NON SPECIFICATO' ) ;
#135 = CC_DESIGN_APPROVAL ( #134, ( #131 ) ) ;
#136 = CC_DESIGN_SECURITY_CLASSIFICATION ( #131, ( #126 ) ) ;
#137 = PRODUCT_RELATED_PRODUCT_CATEGORY ( 'detail', '', ( #138 ) ) ;
#138 = PRODUCT ( '03130040', '03130040', '', ( #14 ) ) ;
#139 = UNCERTAINTY_MEASURE_WITH_UNIT (LENGTH_MEASURE( 1.000000000000000100E-005 ), #6, 'distance_accuracy_value', 'NONE');
#140 = PERSON ( 'NON SPECIFICATO', 'NON SPECIFICATO', 'NON SPECIFICATO', ('NON SPECIFICATO'), ('NON SPECIFICATO'), ('NON SPECIFICATO') ) ;
#141 = EDGE_LOOP ( 'NONE', ( #174, #175 ) ) ;
#142 = CLOSED_SHELL ( 'NONE', ( #59, #58, #60, #61, #62, #63, #64, #65, #66, #67, #68 ) ) ;
#143 = EDGE_LOOP ( 'NONE', ( #207, #212 ) ) ;
#144 = EDGE_LOOP ( 'NONE', ( #209, #211 ) ) ;
#145 = EDGE_LOOP ( 'NONE', ( #213, #170, #171, #210 ) ) ;
#146 = EDGE_LOOP ( 'NONE', ( #205, #206, #203, #208 ) ) ;
#147 = EDGE_LOOP ( 'NONE', ( #172, #173 ) ) ;
#148 = EDGE_LOOP ( 'NONE', ( #200, #199 ) ) ;
#149 = EDGE_LOOP ( 'NONE', ( #197, #198 ) ) ;
#150 = EDGE_LOOP ( 'NONE', ( #176, #178, #177, #179 ) ) ;
#151 = EDGE_LOOP ( 'NONE', ( #201, #202, #196, #204 ) ) ;
#152 = EDGE_LOOP ( 'NONE', ( #192, #194, #193, #195 ) ) ;
#153 = EDGE_LOOP ( 'NONE', ( #188, #190, #189, #191 ) ) ;
#154 = EDGE_LOOP ( 'NONE', ( #180, #182, #181, #183 ) ) ;
#155 = EDGE_LOOP ( 'NONE', ( #184, #186, #185, #187 ) ) ;
#156 = VERTEX_POINT ( 'NONE', #367 ) ;
#157 = VERTEX_POINT ( 'NONE', #368 ) ;
#158 = VERTEX_POINT ( 'NONE', #369 ) ;
#159 = VERTEX_POINT ( 'NONE', #370 ) ;
#160 = VERTEX_POINT ( 'NONE', #371 ) ;
#161 = VERTEX_POINT ( 'NONE', #372 ) ;
#162 = VERTEX_POINT ( 'NONE', #373 ) ;
#163 = VERTEX_POINT ( 'NONE', #374 ) ;
#164 = VERTEX_POINT ( 'NONE', #375 ) ;
#165 = VERTEX_POINT ( 'NONE', #1 ) ;
#166 = VERTEX_POINT ( 'NONE', #2 ) ;
#167 = VERTEX_POINT ( 'NONE', #3 ) ;
#168 = VERTEX_POINT ( 'NONE', #4 ) ;
#169 = VERTEX_POINT ( 'NONE', #5 ) ;
#170 = ORIENTED_EDGE ( 'NONE', *, *, #37, .F. ) ;
#171 = ORIENTED_EDGE ( 'NONE', *, *, #53, .T. ) ;
#172 = ORIENTED_EDGE ( 'NONE', *, *, #44, .T. ) ;
#173 = ORIENTED_EDGE ( 'NONE', *, *, #41, .T. ) ;
#174 = ORIENTED_EDGE ( 'NONE', *, *, #69, .F. ) ;
#175 = ORIENTED_EDGE ( 'NONE', *, *, #55, .F. ) ;
#176 = ORIENTED_EDGE ( 'NONE', *, *, #57, .F. ) ;
#177 = ORIENTED_EDGE ( 'NONE', *, *, #55, .T. ) ;
#178 = ORIENTED_EDGE ( 'NONE', *, *, #56, .T. ) ;
#179 = ORIENTED_EDGE ( 'NONE', *, *, #53, .F. ) ;
#180 = ORIENTED_EDGE ( 'NONE', *, *, #52, .T. ) ;
#181 = ORIENTED_EDGE ( 'NONE', *, *, #51, .F. ) ;
#182 = ORIENTED_EDGE ( 'NONE', *, *, #54, .T. ) ;
#183 = ORIENTED_EDGE ( 'NONE', *, *, #50, .F. ) ;
#184 = ORIENTED_EDGE ( 'NONE', *, *, #51, .T. ) ;
#185 = ORIENTED_EDGE ( 'NONE', *, *, #48, .F. ) ;
#186 = ORIENTED_EDGE ( 'NONE', *, *, #49, .T. ) ;
#187 = ORIENTED_EDGE ( 'NONE', *, *, #47, .F. ) ;
#188 = ORIENTED_EDGE ( 'NONE', *, *, #45, .T. ) ;
#189 = ORIENTED_EDGE ( 'NONE', *, *, #44, .F. ) ;
#190 = ORIENTED_EDGE ( 'NONE', *, *, #46, .T. ) ;
#191 = ORIENTED_EDGE ( 'NONE', *, *, #43, .F. ) ;
#192 = ORIENTED_EDGE ( 'NONE', *, *, #46, .F. ) ;
#193 = ORIENTED_EDGE ( 'NONE', *, *, #43, .T. ) ;
#194 = ORIENTED_EDGE ( 'NONE', *, *, #42, .T. ) ;
#195 = ORIENTED_EDGE ( 'NONE', *, *, #41, .F. ) ;
#196 = ORIENTED_EDGE ( 'NONE', *, *, #47, .T. ) ;
#197 = ORIENTED_EDGE ( 'NONE', *, *, #48, .T. ) ;
#198 = ORIENTED_EDGE ( 'NONE', *, *, #40, .T. ) ;
#199 = ORIENTED_EDGE ( 'NONE', *, *, #42, .F. ) ;
#200 = ORIENTED_EDGE ( 'NONE', *, *, #45, .F. ) ;
#201 = ORIENTED_EDGE ( 'NONE', *, *, #49, .F. ) ;
#202 = ORIENTED_EDGE ( 'NONE', *, *, #39, .T. ) ;
#203 = ORIENTED_EDGE ( 'NONE', *, *, #50, .T. ) ;
#204 = ORIENTED_EDGE ( 'NONE', *, *, #40, .F. ) ;
#205 = ORIENTED_EDGE ( 'NONE', *, *, #54, .F. ) ;
#206 = ORIENTED_EDGE ( 'NONE', *, *, #38, .T. ) ;
#207 = ORIENTED_EDGE ( 'NONE', *, *, #52, .F. ) ;
#208 = ORIENTED_EDGE ( 'NONE', *, *, #39, .F. ) ;
#209 = ORIENTED_EDGE ( 'NONE', *, *, #37, .T. ) ;
#210 = ORIENTED_EDGE ( 'NONE', *, *, #69, .T. ) ;
#211 = ORIENTED_EDGE ( 'NONE', *, *, #57, .T. ) ;
#212 = ORIENTED_EDGE ( 'NONE', *, *, #38, .F. ) ;
#213 = ORIENTED_EDGE ( 'NONE', *, *, #56, .F. ) ;
#214 = FACE_OUTER_BOUND ( 'NONE', #150, .T. ) ;
#215 = LINE ( 'NONE', #291, #84 ) ;
#216 = LINE ( 'NONE', #299, #88 ) ;
#217 = LINE ( 'NONE', #301, #90 ) ;
#218 = LINE ( 'NONE', #306, #93 ) ;
#219 = LINE ( 'NONE', #308, #94 ) ;
#220 = LINE ( 'NONE', #316, #99 ) ;
#221 = LINE ( 'NONE', #318, #101 ) ;
#222 = LINE ( 'NONE', #323, #105 ) ;
#223 = FACE_OUTER_BOUND ( 'NONE', #154, .T. ) ;
#224 = CYLINDRICAL_SURFACE ( 'NONE', #108, 2.500000000000000400 ) ;
#225 = FACE_OUTER_BOUND ( 'NONE', #155, .T. ) ;
#226 = CYLINDRICAL_SURFACE ( 'NONE', #100, 3.000000000000000000 ) ;
#227 = FACE_OUTER_BOUND ( 'NONE', #153, .T. ) ;
#228 = CYLINDRICAL_SURFACE ( 'NONE', #109, 3.750000000000000000 ) ;
#229 = FACE_OUTER_BOUND ( 'NONE', #152, .T. ) ;
#230 = CYLINDRICAL_SURFACE ( 'NONE', #110, 3.750000000000000000 ) ;
#231 = FACE_BOUND ( 'NONE', #149, .T. ) ;
#232 = FACE_OUTER_BOUND ( 'NONE', #148, .T. ) ;
#233 = FACE_OUTER_BOUND ( 'NONE', #151, .T. ) ;
#234 = CYLINDRICAL_SURFACE ( 'NONE', #112, 3.000000000000000000 ) ;
#235 = FACE_OUTER_BOUND ( 'NONE', #146, .T. ) ;
#236 = FACE_BOUND ( 'NONE', #144, .T. ) ;
#237 = FACE_OUTER_BOUND ( 'NONE', #143, .T. ) ;
#238 = FACE_OUTER_BOUND ( 'NONE', #145, .T. ) ;
#239 = CYLINDRICAL_SURFACE ( 'NONE', #114, 2.500000000000000400 ) ;
#240 = FACE_OUTER_BOUND ( 'NONE', #147, .T. ) ;
#241 = FACE_BOUND ( 'NONE', #141, .T. ) ;
#242 = SHAPE_DEFINITION_REPRESENTATION ( #379, #376 ) ;
#243 = ORGANIZATION ( 'NON SPECIFICATO', 'NON SPECIFICATO', '' ) ;
#244 = PERSON_AND_ORGANIZATION ( #140, #243 ) ;
#245 = PERSON_AND_ORGANIZATION ( #140, #243 ) ;
#246 = APPROVAL_PERSON_ORGANIZATION ( #245, #122, #19 ) ;
#247 = COORDINATED_UNIVERSAL_TIME_OFFSET ( 1, 0, .AHEAD. ) ;
#248 = CALENDAR_DATE ( 2011, 7, 11 ) ;
#249 = DATE_AND_TIME ( #248, #36 ) ;
#250 = APPROVAL_DATE_TIME ( #249, #122 ) ;
#251 = PERSON_AND_ORGANIZATION ( #140, #243 ) ;
#252 = COORDINATED_UNIVERSAL_TIME_OFFSET ( 1, 0, .AHEAD. ) ;
#253 = CALENDAR_DATE ( 2011, 7, 11 ) ;
#254 = DATE_AND_TIME ( #253, #35 ) ;
#255 = PERSON_AND_ORGANIZATION ( #140, #243 ) ;
#256 = APPROVAL_PERSON_ORGANIZATION ( #255, #127, #23 ) ;
#257 = COORDINATED_UNIVERSAL_TIME_OFFSET ( 1, 0, .AHEAD. ) ;
#258 = CALENDAR_DATE ( 2011, 7, 11 ) ;
#259 = DATE_AND_TIME ( #258, #34 ) ;
#260 = APPROVAL_DATE_TIME ( #259, #127 ) ;
#261 = PERSON_AND_ORGANIZATION ( #140, #243 ) ;
#262 = PERSON_AND_ORGANIZATION ( #140, #243 ) ;
#263 = PERSON_AND_ORGANIZATION ( #140, #243 ) ;
#264 = COORDINATED_UNIVERSAL_TIME_OFFSET ( 1, 0, .AHEAD. ) ;
#265 = CALENDAR_DATE ( 2011, 7, 11 ) ;
#266 = DATE_AND_TIME ( #265, #31 ) ;
#267 = PERSON_AND_ORGANIZATION ( #140, #243 ) ;
#268 = APPROVAL_PERSON_ORGANIZATION ( #267, #134, #30 ) ;
#269 = COORDINATED_UNIVERSAL_TIME_OFFSET ( 1, 0, .AHEAD. ) ;
#270 = CALENDAR_DATE ( 2011, 7, 11 ) ;
#271 = DATE_AND_TIME ( #270, #32 ) ;
#272 = APPROVAL_DATE_TIME ( #271, #134 ) ;
#273 = CARTESIAN_POINT ( 'NONE',  ( 0.0000000000000000000, 12.99999999999999800, 0.0000000000000000000 ) ) ;
#274 = DIRECTION ( 'NONE',  ( -0.0000000000000000000, -1.000000000000000000, -0.0000000000000000000 ) ) ;
#275 = DIRECTION ( 'NONE',  ( 0.0000000000000000000, 0.0000000000000000000, -1.000000000000000000 ) ) ;
#276 = CARTESIAN_POINT ( 'NONE',  ( 0.0000000000000000000, 12.99999999999999800, 0.0000000000000000000 ) ) ;
#277 = DIRECTION ( 'NONE',  ( -0.0000000000000000000, -1.000000000000000000, -0.0000000000000000000 ) ) ;
#278 = DIRECTION ( 'NONE',  ( 0.0000000000000000000, 0.0000000000000000000, -1.000000000000000000 ) ) ;
#279 = CARTESIAN_POINT ( 'NONE',  ( 0.0000000000000000000, 12.48038475772933800, 0.0000000000000000000 ) ) ;
#280 = DIRECTION ( 'NONE',  ( -0.0000000000000000000, -1.000000000000000000, -0.0000000000000000000 ) ) ;
#281 = DIRECTION ( 'NONE',  ( 0.0000000000000000000, 0.0000000000000000000, -1.000000000000000000 ) ) ;
#282 = CARTESIAN_POINT ( 'NONE',  ( 0.0000000000000000000, 0.5999999999999998700, 0.0000000000000000000 ) ) ;
#283 = DIRECTION ( 'NONE',  ( -0.0000000000000000000, -1.000000000000000000, -0.0000000000000000000 ) ) ;
#284 = DIRECTION ( 'NONE',  ( 0.0000000000000000000, 0.0000000000000000000, -1.000000000000000000 ) ) ;
#285 = CARTESIAN_POINT ( 'NONE',  ( 0.0000000000000000000, 0.0000000000000000000, 0.0000000000000000000 ) ) ;
#286 = DIRECTION ( 'NONE',  ( -0.0000000000000000000, -1.000000000000000000, -0.0000000000000000000 ) ) ;
#287 = DIRECTION ( 'NONE',  ( 0.0000000000000000000, 0.0000000000000000000, -1.000000000000000000 ) ) ;
#288 = CARTESIAN_POINT ( 'NONE',  ( 0.0000000000000000000, 0.5999999999999998700, 0.0000000000000000000 ) ) ;
#289 = DIRECTION ( 'NONE',  ( -0.0000000000000000000, -1.000000000000000000, -0.0000000000000000000 ) ) ;
#290 = DIRECTION ( 'NONE',  ( 0.0000000000000000000, 0.0000000000000000000, -1.000000000000000000 ) ) ;
#291 = CARTESIAN_POINT ( 'NONE',  ( 0.0000000000000000000, -12.77979795290797000, -3.750000000000000000 ) ) ;
#292 = DIRECTION ( 'NONE',  ( -0.0000000000000000000, -1.000000000000000000, -0.0000000000000000000 ) ) ;
#293 = CARTESIAN_POINT ( 'NONE',  ( 0.0000000000000000000, 0.0000000000000000000, 0.0000000000000000000 ) ) ;
#294 = DIRECTION ( 'NONE',  ( -0.0000000000000000000, -1.000000000000000000, -0.0000000000000000000 ) ) ;
#295 = DIRECTION ( 'NONE',  ( 0.0000000000000000000, 0.0000000000000000000, -1.000000000000000000 ) ) ;
#296 = CARTESIAN_POINT ( 'NONE',  ( 0.0000000000000000000, 0.5999999999999998700, 0.0000000000000000000 ) ) ;
#297 = DIRECTION ( 'NONE',  ( -0.0000000000000000000, -1.000000000000000000, -0.0000000000000000000 ) ) ;
#298 = DIRECTION ( 'NONE',  ( 0.0000000000000000000, 0.0000000000000000000, -1.000000000000000000 ) ) ;
#299 = CARTESIAN_POINT ( 'NONE',  ( 4.592425496802574000E-016, -12.77979795290797000, 3.750000000000000000 ) ) ;
#300 = DIRECTION ( 'NONE',  ( -0.0000000000000000000, -1.000000000000000000, -0.0000000000000000000 ) ) ;
#301 = CARTESIAN_POINT ( 'NONE',  ( 0.0000000000000000000, -12.77979795290797000, -3.000000000000000000 ) ) ;
#302 = DIRECTION ( 'NONE',  ( -0.0000000000000000000, -1.000000000000000000, -0.0000000000000000000 ) ) ;
#303 = CARTESIAN_POINT ( 'NONE',  ( 0.0000000000000000000, 0.5999999999999998700, 0.0000000000000000000 ) ) ;
#304 = DIRECTION ( 'NONE',  ( -0.0000000000000000000, -1.000000000000000000, -0.0000000000000000000 ) ) ;
#305 = DIRECTION ( 'NONE',  ( 0.0000000000000000000, 0.0000000000000000000, -1.000000000000000000 ) ) ;
#306 = CARTESIAN_POINT ( 'NONE',  ( 3.673940397442059900E-016, -12.77979795290797000, 3.000000000000000000 ) ) ;
#307 = DIRECTION ( 'NONE',  ( -0.0000000000000000000, -1.000000000000000000, -0.0000000000000000000 ) ) ;
#308 = CARTESIAN_POINT ( 'NONE',  ( 0.0000000000000000000, 12.48038475772933800, -3.000000000000000000 ) ) ;
#309 = DIRECTION ( 'NONE',  ( 0.0000000000000000000, -0.8660254037844371500, -0.5000000000000026600 ) ) ;
#310 = CARTESIAN_POINT ( 'NONE',  ( 0.0000000000000000000, 12.48038475772933800, 0.0000000000000000000 ) ) ;
#311 = DIRECTION ( 'NONE',  ( -0.0000000000000000000, -1.000000000000000000, -0.0000000000000000000 ) ) ;
#312 = DIRECTION ( 'NONE',  ( 0.0000000000000000000, 0.0000000000000000000, -1.000000000000000000 ) ) ;
#313 = CARTESIAN_POINT ( 'NONE',  ( 0.0000000000000000000, 12.99999999999999800, 0.0000000000000000000 ) ) ;
#314 = DIRECTION ( 'NONE',  ( -0.0000000000000000000, -1.000000000000000000, -0.0000000000000000000 ) ) ;
#315 = DIRECTION ( 'NONE',  ( 0.0000000000000000000, 0.0000000000000000000, -1.000000000000000000 ) ) ;
#316 = CARTESIAN_POINT ( 'NONE',  ( 0.0000000000000000000, -12.77979795290797000, -2.500000000000000400 ) ) ;
#317 = DIRECTION ( 'NONE',  ( -0.0000000000000000000, -1.000000000000000000, -0.0000000000000000000 ) ) ;
#318 = CARTESIAN_POINT ( 'NONE',  ( 3.673940397442059900E-016, 12.48038475772933800, 3.000000000000000000 ) ) ;
#319 = DIRECTION ( 'NONE',  ( 6.123233995736798100E-017, -0.8660254037844371500, 0.5000000000000026600 ) ) ;
#320 = CARTESIAN_POINT ( 'NONE',  ( 0.0000000000000000000, 0.0000000000000000000, 0.0000000000000000000 ) ) ;
#321 = DIRECTION ( 'NONE',  ( -0.0000000000000000000, -1.000000000000000000, -0.0000000000000000000 ) ) ;
#322 = DIRECTION ( 'NONE',  ( 0.0000000000000000000, 0.0000000000000000000, -1.000000000000000000 ) ) ;
#323 = CARTESIAN_POINT ( 'NONE',  ( 3.061616997868383600E-016, -12.77979795290797000, 2.500000000000000400 ) ) ;
#324 = DIRECTION ( 'NONE',  ( -0.0000000000000000000, -1.000000000000000000, -0.0000000000000000000 ) ) ;
#325 = CARTESIAN_POINT ( 'NONE',  ( 0.0000000000000000000, 12.99999999999999800, 0.0000000000000000000 ) ) ;
#326 = DIRECTION ( 'NONE',  ( -0.0000000000000000000, -1.000000000000000000, -0.0000000000000000000 ) ) ;
#327 = DIRECTION ( 'NONE',  ( 0.0000000000000000000, 0.0000000000000000000, -1.000000000000000000 ) ) ;
#328 = CARTESIAN_POINT ( 'NONE',  ( 0.0000000000000000000, 12.48038475772933800, 0.0000000000000000000 ) ) ;
#329 = DIRECTION ( 'NONE',  ( -0.0000000000000000000, -1.000000000000000000, -0.0000000000000000000 ) ) ;
#330 = DIRECTION ( 'NONE',  ( 0.0000000000000000000, 0.0000000000000000000, -1.000000000000000000 ) ) ;
#331 = CARTESIAN_POINT ( 'NONE',  ( 0.0000000000000000000, -12.77979795290797000, 0.0000000000000000000 ) ) ;
#332 = DIRECTION ( 'NONE',  ( -0.0000000000000000000, -1.000000000000000000, -0.0000000000000000000 ) ) ;
#333 = DIRECTION ( 'NONE',  ( 0.0000000000000000000, 0.0000000000000000000, -1.000000000000000000 ) ) ;
#334 = CARTESIAN_POINT ( 'NONE',  ( 0.0000000000000000000, -12.77979795290797000, 0.0000000000000000000 ) ) ;
#335 = DIRECTION ( 'NONE',  ( -0.0000000000000000000, -1.000000000000000000, -0.0000000000000000000 ) ) ;
#336 = DIRECTION ( 'NONE',  ( 0.0000000000000000000, 0.0000000000000000000, -1.000000000000000000 ) ) ;
#337 = CARTESIAN_POINT ( 'NONE',  ( 0.0000000000000000000, -12.77979795290797000, 0.0000000000000000000 ) ) ;
#338 = DIRECTION ( 'NONE',  ( -0.0000000000000000000, -1.000000000000000000, -0.0000000000000000000 ) ) ;
#339 = DIRECTION ( 'NONE',  ( 0.0000000000000000000, 0.0000000000000000000, -1.000000000000000000 ) ) ;
#340 = CARTESIAN_POINT ( 'NONE',  ( 0.0000000000000000000, -12.77979795290797000, 0.0000000000000000000 ) ) ;
#341 = DIRECTION ( 'NONE',  ( -0.0000000000000000000, -1.000000000000000000, -0.0000000000000000000 ) ) ;
#342 = DIRECTION ( 'NONE',  ( 0.0000000000000000000, 0.0000000000000000000, -1.000000000000000000 ) ) ;
#343 = PLANE ( 'NONE',  #113 ) ;
#344 = CARTESIAN_POINT ( 'NONE',  ( 3.750000000000000000, 0.5999999999999998700, 0.0000000000000000000 ) ) ;
#345 = DIRECTION ( 'NONE',  ( 0.0000000000000000000, 1.000000000000000000, 0.0000000000000000000 ) ) ;
#346 = DIRECTION ( 'NONE',  ( 0.0000000000000000000, -0.0000000000000000000, 1.000000000000000000 ) ) ;
#347 = CARTESIAN_POINT ( 'NONE',  ( 0.0000000000000000000, -12.77979795290797000, 0.0000000000000000000 ) ) ;
#348 = DIRECTION ( 'NONE',  ( -0.0000000000000000000, -1.000000000000000000, -0.0000000000000000000 ) ) ;
#349 = DIRECTION ( 'NONE',  ( 0.0000000000000000000, 0.0000000000000000000, -1.000000000000000000 ) ) ;
#350 = CARTESIAN_POINT ( 'NONE',  ( 0.0000000000000000000, 12.48038475772933800, 0.0000000000000000000 ) ) ;
#351 = DIRECTION ( 'NONE',  ( -0.0000000000000000000, -1.000000000000000000, -0.0000000000000000000 ) ) ;
#352 = DIRECTION ( 'NONE',  ( 0.0000000000000000000, 0.0000000000000000000, -1.000000000000000000 ) ) ;
#353 = PLANE ( 'NONE',  #116 ) ;
#354 = CARTESIAN_POINT ( 'NONE',  ( 2.700000000000000200, 12.99999999999999800, 0.0000000000000000000 ) ) ;
#355 = DIRECTION ( 'NONE',  ( 0.0000000000000000000, 1.000000000000000000, 0.0000000000000000000 ) ) ;
#356 = DIRECTION ( 'NONE',  ( 0.0000000000000000000, -0.0000000000000000000, 1.000000000000000000 ) ) ;
#357 = CARTESIAN_POINT ( 'NONE',  ( 0.0000000000000000000, -12.77979795290797000, 0.0000000000000000000 ) ) ;
#358 = DIRECTION ( 'NONE',  ( -0.0000000000000000000, -1.000000000000000000, -0.0000000000000000000 ) ) ;
#359 = DIRECTION ( 'NONE',  ( 0.0000000000000000000, 0.0000000000000000000, -1.000000000000000000 ) ) ;
#360 = PLANE ( 'NONE',  #117 ) ;
#361 = CARTESIAN_POINT ( 'NONE',  ( 2.500000000000001300, 0.0000000000000000000, 0.0000000000000000000 ) ) ;
#362 = DIRECTION ( 'NONE',  ( 0.0000000000000000000, -1.000000000000000000, -0.0000000000000000000 ) ) ;
#363 = DIRECTION ( 'NONE',  ( 0.0000000000000000000, 0.0000000000000000000, -1.000000000000000000 ) ) ;
#364 = CARTESIAN_POINT ( 'NONE',  ( 0.0000000000000000000, 0.0000000000000000000, 0.0000000000000000000 ) ) ;
#365 = DIRECTION ( 'NONE',  ( -0.0000000000000000000, -1.000000000000000000, -0.0000000000000000000 ) ) ;
#366 = DIRECTION ( 'NONE',  ( 0.0000000000000000000, 0.0000000000000000000, -1.000000000000000000 ) ) ;
#367 = CARTESIAN_POINT ( 'NONE',  ( 3.061616997868385100E-016, 0.0000000000000000000, 2.500000000000001800 ) ) ;
#368 = CARTESIAN_POINT ( 'NONE',  ( 0.0000000000000000000, 0.0000000000000000000, -2.500000000000001300 ) ) ;
#369 = CARTESIAN_POINT ( 'NONE',  ( 0.0000000000000000000, 12.99999999999999800, -2.500000000000000000 ) ) ;
#370 = CARTESIAN_POINT ( 'NONE',  ( 3.061616997868383100E-016, 12.99999999999999800, 2.500000000000000000 ) ) ;
#371 = CARTESIAN_POINT ( 'NONE',  ( 0.0000000000000000000, 12.99999999999999800, -2.700000000000000200 ) ) ;
#372 = CARTESIAN_POINT ( 'NONE',  ( 3.490243377569956600E-016, 12.99999999999999800, 2.700000000000000200 ) ) ;
#373 = CARTESIAN_POINT ( 'NONE',  ( 3.673940397442059900E-016, 12.48038475772933800, 3.000000000000000000 ) ) ;
#374 = CARTESIAN_POINT ( 'NONE',  ( 0.0000000000000000000, 12.48038475772933800, -3.000000000000000000 ) ) ;
#375 = CARTESIAN_POINT ( 'NONE',  ( 3.673940397442059900E-016, 0.5999999999999998700, 3.000000000000000000 ) ) ;
#376 = ADVANCED_BREP_SHAPE_REPRESENTATION ( '03130040', ( #377, #119 ), #33 ) ;
#377 = MANIFOLD_SOLID_BREP ( 'Rivoluzione1', #142 ) ;
#378 = DESIGN_CONTEXT ( 'detailed design', #16, 'design' ) ;
#379 = PRODUCT_DEFINITION_SHAPE ( 'NONE', 'NONE',  #121 ) ;
ENDSEC;
END-ISO-10303-21;
