ISO-10303-21;
HEADER;
FILE_DESCRIPTION(( 'MA.30C00.18.stp' ), '1');
FILE_NAME( 'MA.30C00.18.stp', '2018-08-24T14:34:42',( 'Sopra'),('sopra-pneumatic.com'), 'SwSTEP 2.0','SolidWorks 2009','' );
FILE_SCHEMA(('CONFIG_CONTROL_DESIGN'));
ENDSEC;
DATA;
#1=CARTESIAN_POINT('',(0.E0,1.E0,0.E0));
#2=DIRECTION('',(0.E0,1.E0,0.E0));
#3=DIRECTION('',(-1.E0,0.E0,0.E0));
#4=AXIS2_PLACEMENT_3D('',#1,#2,#3);
#6=DIRECTION('',(0.E0,-1.E0,0.E0));
#7=VECTOR('',#6,1.E0);
#8=CARTESIAN_POINT('',(-7.E0,1.E0,0.E0));
#9=LINE('',#8,#7);
#10=DIRECTION('',(0.E0,-1.E0,0.E0));
#11=VECTOR('',#10,1.E0);
#12=CARTESIAN_POINT('',(7.E0,1.E0,0.E0));
#13=LINE('',#12,#11);
#14=CARTESIAN_POINT('',(0.E0,1.E0,0.E0));
#15=DIRECTION('',(0.E0,-1.E0,0.E0));
#16=DIRECTION('',(-1.E0,0.E0,0.E0));
#17=AXIS2_PLACEMENT_3D('',#14,#15,#16);
#19=CARTESIAN_POINT('',(0.E0,0.E0,0.E0));
#20=DIRECTION('',(0.E0,-1.E0,0.E0));
#21=DIRECTION('',(-1.E0,0.E0,0.E0));
#22=AXIS2_PLACEMENT_3D('',#19,#20,#21);
#24=CARTESIAN_POINT('',(0.E0,0.E0,0.E0));
#25=DIRECTION('',(0.E0,1.E0,0.E0));
#26=DIRECTION('',(-1.E0,0.E0,0.E0));
#27=AXIS2_PLACEMENT_3D('',#24,#25,#26);
#29=CARTESIAN_POINT('',(0.E0,0.E0,0.E0));
#30=DIRECTION('',(0.E0,1.E0,0.E0));
#31=DIRECTION('',(-1.E0,0.E0,0.E0));
#32=AXIS2_PLACEMENT_3D('',#29,#30,#31);
#34=DIRECTION('',(0.E0,1.E0,0.E0));
#35=VECTOR('',#34,1.E0);
#36=CARTESIAN_POINT('',(-5.15E0,0.E0,0.E0));
#37=LINE('',#36,#35);
#38=DIRECTION('',(0.E0,1.E0,0.E0));
#39=VECTOR('',#38,1.E0);
#40=CARTESIAN_POINT('',(5.15E0,0.E0,0.E0));
#41=LINE('',#40,#39);
#42=CARTESIAN_POINT('',(0.E0,0.E0,0.E0));
#43=DIRECTION('',(0.E0,-1.E0,0.E0));
#44=DIRECTION('',(-1.E0,0.E0,0.E0));
#45=AXIS2_PLACEMENT_3D('',#42,#43,#44);
#47=CARTESIAN_POINT('',(0.E0,1.E0,0.E0));
#48=DIRECTION('',(0.E0,-1.E0,0.E0));
#49=DIRECTION('',(-1.E0,0.E0,0.E0));
#50=AXIS2_PLACEMENT_3D('',#47,#48,#49);
#52=CARTESIAN_POINT('',(0.E0,1.E0,0.E0));
#53=DIRECTION('',(0.E0,1.E0,0.E0));
#54=DIRECTION('',(-1.E0,0.E0,0.E0));
#55=AXIS2_PLACEMENT_3D('',#52,#53,#54);
#57=CARTESIAN_POINT('',(-7.E0,1.E0,0.E0));
#58=CARTESIAN_POINT('',(-7.E0,0.E0,0.E0));
#59=VERTEX_POINT('',#57);
#60=VERTEX_POINT('',#58);
#61=CARTESIAN_POINT('',(-5.15E0,0.E0,0.E0));
#62=CARTESIAN_POINT('',(-5.15E0,1.E0,0.E0));
#63=VERTEX_POINT('',#61);
#64=VERTEX_POINT('',#62);
#65=CARTESIAN_POINT('',(7.E0,1.E0,0.E0));
#66=CARTESIAN_POINT('',(7.E0,0.E0,0.E0));
#67=VERTEX_POINT('',#65);
#68=VERTEX_POINT('',#66);
#69=CARTESIAN_POINT('',(5.15E0,0.E0,0.E0));
#70=CARTESIAN_POINT('',(5.15E0,1.E0,0.E0));
#71=VERTEX_POINT('',#69);
#72=VERTEX_POINT('',#70);
#73=CARTESIAN_POINT('',(0.E0,-5.E-2,0.E0));
#74=DIRECTION('',(0.E0,1.E0,0.E0));
#75=DIRECTION('',(1.E0,0.E0,0.E0));
#76=AXIS2_PLACEMENT_3D('',#73,#74,#75);
#77=CYLINDRICAL_SURFACE('',#76,7.E0);
#79=ORIENTED_EDGE('',*,*,#78,.F.);
#81=ORIENTED_EDGE('',*,*,#80,.T.);
#83=ORIENTED_EDGE('',*,*,#82,.T.);
#85=ORIENTED_EDGE('',*,*,#84,.F.);
#86=EDGE_LOOP('',(#79,#81,#83,#85));
#87=FACE_OUTER_BOUND('',#86,.F.);
#88=ADVANCED_FACE('',(#87),#77,.T.);
#89=CARTESIAN_POINT('',(0.E0,-5.E-2,0.E0));
#90=DIRECTION('',(0.E0,1.E0,0.E0));
#91=DIRECTION('',(1.E0,0.E0,0.E0));
#92=AXIS2_PLACEMENT_3D('',#89,#90,#91);
#93=CYLINDRICAL_SURFACE('',#92,7.E0);
#94=ORIENTED_EDGE('',*,*,#78,.T.);
#96=ORIENTED_EDGE('',*,*,#95,.T.);
#97=ORIENTED_EDGE('',*,*,#82,.F.);
#99=ORIENTED_EDGE('',*,*,#98,.F.);
#100=EDGE_LOOP('',(#94,#96,#97,#99));
#101=FACE_OUTER_BOUND('',#100,.F.);
#102=ADVANCED_FACE('',(#101),#93,.T.);
#103=CARTESIAN_POINT('',(0.E0,0.E0,0.E0));
#104=DIRECTION('',(0.E0,1.E0,0.E0));
#105=DIRECTION('',(1.E0,0.E0,0.E0));
#106=AXIS2_PLACEMENT_3D('',#103,#104,#105);
#107=PLANE('',#106);
#108=ORIENTED_EDGE('',*,*,#95,.F.);
#109=ORIENTED_EDGE('',*,*,#84,.T.);
#110=EDGE_LOOP('',(#108,#109));
#111=FACE_OUTER_BOUND('',#110,.F.);
#113=ORIENTED_EDGE('',*,*,#112,.F.);
#115=ORIENTED_EDGE('',*,*,#114,.T.);
#116=EDGE_LOOP('',(#113,#115));
#117=FACE_BOUND('',#116,.F.);
#118=ADVANCED_FACE('',(#111,#117),#107,.F.);
#119=CARTESIAN_POINT('',(0.E0,-5.E-2,0.E0));
#120=DIRECTION('',(0.E0,1.E0,0.E0));
#121=DIRECTION('',(1.E0,0.E0,0.E0));
#122=AXIS2_PLACEMENT_3D('',#119,#120,#121);
#123=CYLINDRICAL_SURFACE('',#122,5.15E0);
#125=ORIENTED_EDGE('',*,*,#124,.F.);
#126=ORIENTED_EDGE('',*,*,#112,.T.);
#128=ORIENTED_EDGE('',*,*,#127,.T.);
#130=ORIENTED_EDGE('',*,*,#129,.F.);
#131=EDGE_LOOP('',(#125,#126,#128,#130));
#132=FACE_OUTER_BOUND('',#131,.F.);
#133=ADVANCED_FACE('',(#132),#123,.F.);
#134=CARTESIAN_POINT('',(0.E0,-5.E-2,0.E0));
#135=DIRECTION('',(0.E0,1.E0,0.E0));
#136=DIRECTION('',(1.E0,0.E0,0.E0));
#137=AXIS2_PLACEMENT_3D('',#134,#135,#136);
#138=CYLINDRICAL_SURFACE('',#137,5.15E0);
#139=ORIENTED_EDGE('',*,*,#124,.T.);
#141=ORIENTED_EDGE('',*,*,#140,.T.);
#142=ORIENTED_EDGE('',*,*,#127,.F.);
#143=ORIENTED_EDGE('',*,*,#114,.F.);
#144=EDGE_LOOP('',(#139,#141,#142,#143));
#145=FACE_OUTER_BOUND('',#144,.F.);
#146=ADVANCED_FACE('',(#145),#138,.F.);
#147=CARTESIAN_POINT('',(0.E0,1.E0,0.E0));
#148=DIRECTION('',(0.E0,1.E0,0.E0));
#149=DIRECTION('',(1.E0,0.E0,0.E0));
#150=AXIS2_PLACEMENT_3D('',#147,#148,#149);
#151=PLANE('',#150);
#152=ORIENTED_EDGE('',*,*,#80,.F.);
#153=ORIENTED_EDGE('',*,*,#98,.T.);
#154=EDGE_LOOP('',(#152,#153));
#155=FACE_OUTER_BOUND('',#154,.F.);
#156=ORIENTED_EDGE('',*,*,#140,.F.);
#157=ORIENTED_EDGE('',*,*,#129,.T.);
#158=EDGE_LOOP('',(#156,#157));
#159=FACE_BOUND('',#158,.F.);
#160=ADVANCED_FACE('',(#155,#159),#151,.T.);
#161=CLOSED_SHELL('',(#88,#102,#118,#133,#146,#160));
#162=MANIFOLD_SOLID_BREP('',#161);
#164=DIMENSIONAL_EXPONENTS(0.E0,0.E0,0.E0,0.E0,0.E0,0.E0,0.E0);
#166=PLANE_ANGLE_MEASURE_WITH_UNIT(PLANE_ANGLE_MEASURE(1.745329251994E-2),#165);
#167=(CONVERSION_BASED_UNIT('DEGREE',#166)NAMED_UNIT(#164)PLANE_ANGLE_UNIT());
#169=UNCERTAINTY_MEASURE_WITH_UNIT(LENGTH_MEASURE(1.E-2),#163,'closure',
'Maximum model space distance between geometric entities at asserted connectivities');
#170=(GEOMETRIC_REPRESENTATION_CONTEXT(3)GLOBAL_UNCERTAINTY_ASSIGNED_CONTEXT((
#169))GLOBAL_UNIT_ASSIGNED_CONTEXT((#163,#167,#168))REPRESENTATION_CONTEXT
('ID1','3'));
#172=APPLICATION_CONTEXT(
'CONFIGURATION CONTROLLED 3D DESIGNS OF MECHANICAL PARTS AND ASSEMBLIES');
#173=APPLICATION_PROTOCOL_DEFINITION('international standard',
'config_control_design',1994,#172);
#174=DESIGN_CONTEXT('',#172,'design');
#175=MECHANICAL_CONTEXT('',#172,'mechanical');
#176=PRODUCT('252771_263C-1-8X1','252771_263C-1-8X1','NOT SPECIFIED',(#175));
#177=PRODUCT_DEFINITION_FORMATION_WITH_SPECIFIED_SOURCE('1','LAST_VERSION',#176,
.MADE.);
#181=PRODUCT_CATEGORY('part','');
#182=PRODUCT_RELATED_PRODUCT_CATEGORY('detail','',(#176));
#183=PRODUCT_CATEGORY_RELATIONSHIP('','',#181,#182);
#184=SECURITY_CLASSIFICATION_LEVEL('unclassified');
#185=SECURITY_CLASSIFICATION('','',#184);
#186=CC_DESIGN_SECURITY_CLASSIFICATION(#185,(#177));
#187=APPROVAL_STATUS('approved');
#188=APPROVAL(#187,'');
#189=CC_DESIGN_APPROVAL(#188,(#185,#177,#178));
#190=CALENDAR_DATE(112,27,7);
#191=COORDINATED_UNIVERSAL_TIME_OFFSET(2,0,.AHEAD.);
#192=LOCAL_TIME(12,32,5.E0,#191);
#193=DATE_AND_TIME(#190,#192);
#194=APPROVAL_DATE_TIME(#193,#188);
#195=DATE_TIME_ROLE('creation_date');
#196=CC_DESIGN_DATE_AND_TIME_ASSIGNMENT(#193,#195,(#178));
#197=DATE_TIME_ROLE('classification_date');
#198=CC_DESIGN_DATE_AND_TIME_ASSIGNMENT(#193,#197,(#185));
#199=PERSON('UNSPECIFIED','UNSPECIFIED',$,$,$,$);
#200=ORGANIZATION('UNSPECIFIED','UNSPECIFIED','UNSPECIFIED');
#201=PERSON_AND_ORGANIZATION(#199,#200);
#202=APPROVAL_ROLE('approver');
#203=APPROVAL_PERSON_ORGANIZATION(#201,#188,#202);
#204=PERSON_AND_ORGANIZATION_ROLE('creator');
#205=CC_DESIGN_PERSON_AND_ORGANIZATION_ASSIGNMENT(#201,#204,(#177,#178));
#206=PERSON_AND_ORGANIZATION_ROLE('design_supplier');
#207=CC_DESIGN_PERSON_AND_ORGANIZATION_ASSIGNMENT(#201,#206,(#177));
#208=PERSON_AND_ORGANIZATION_ROLE('classification_officer');
#209=CC_DESIGN_PERSON_AND_ORGANIZATION_ASSIGNMENT(#201,#208,(#185));
#210=PERSON_AND_ORGANIZATION_ROLE('design_owner');
#211=CC_DESIGN_PERSON_AND_ORGANIZATION_ASSIGNMENT(#201,#210,(#176));
#5=CIRCLE('',#4,7.E0);
#18=CIRCLE('',#17,7.E0);
#23=CIRCLE('',#22,7.E0);
#28=CIRCLE('',#27,7.E0);
#33=CIRCLE('',#32,5.15E0);
#46=CIRCLE('',#45,5.15E0);
#51=CIRCLE('',#50,5.15E0);
#56=CIRCLE('',#55,5.15E0);
#78=EDGE_CURVE('',#59,#60,#9,.T.);
#80=EDGE_CURVE('',#59,#67,#5,.T.);
#82=EDGE_CURVE('',#67,#68,#13,.T.);
#84=EDGE_CURVE('',#60,#68,#28,.T.);
#95=EDGE_CURVE('',#60,#68,#23,.T.);
#98=EDGE_CURVE('',#59,#67,#18,.T.);
#112=EDGE_CURVE('',#63,#71,#33,.T.);
#114=EDGE_CURVE('',#63,#71,#46,.T.);
#124=EDGE_CURVE('',#63,#64,#37,.T.);
#127=EDGE_CURVE('',#71,#72,#41,.T.);
#129=EDGE_CURVE('',#64,#72,#56,.T.);
#140=EDGE_CURVE('',#64,#72,#51,.T.);
#163=(LENGTH_UNIT()NAMED_UNIT(*)SI_UNIT(.MILLI.,.METRE.));
#165=(NAMED_UNIT(*)PLANE_ANGLE_UNIT()SI_UNIT($,.RADIAN.));
#168=(NAMED_UNIT(*)SI_UNIT($,.STERADIAN.)SOLID_ANGLE_UNIT());
#171=ADVANCED_BREP_SHAPE_REPRESENTATION('',(#162),#170);
#178=PRODUCT_DEFINITION('design','',#177,#174);
#179=PRODUCT_DEFINITION_SHAPE('','SHAPE FOR 252771_263C-1-8X1.',#178);
#180=SHAPE_DEFINITION_REPRESENTATION(#179,#171);
ENDSEC;
END-ISO-10303-21;
