ISO-10303-21;
HEADER;
FILE_DESCRIPTION (( 'STEP AP203' ),
    '1' );
FILE_NAME ('A0200000.STEP',
    '2009-12-02T09:01:43',
    ( '' ),
    ( 'sopra-pneumatic' ),
    'SwSTEP 2.0',
    'SolidWorks 2009',
    '' );
FILE_SCHEMA (( 'CONFIG_CONTROL_DESIGN' ));
ENDSEC;

DATA;
#1 = DIRECTION ( 'NONE',  ( -0.0000000000000000000, 1.000000000000000000, -0.0000000000000000000 ) ) ;
#2 = CARTESIAN_POINT ( 'NONE',  ( 0.0000000000000000000, 0.0000000000000000000, 0.0000000000000000000 ) ) ;
#3 = DIRECTION ( 'NONE',  ( 0.0000000000000000000, 0.0000000000000000000, 1.000000000000000000 ) ) ;
#4 = LINE ( 'NONE', #101, #100 ) ;
#5 = DIRECTION ( 'NONE',  ( 0.0000000000000000000, 0.0000000000000000000, 1.000000000000000000 ) ) ;
#6 = DIRECTION ( 'NONE',  ( -0.0000000000000000000, 1.000000000000000000, -0.0000000000000000000 ) ) ;
#7 = AXIS2_PLACEMENT_3D ( 'NONE', #8, #6, #5 ) ;
#8 = CARTESIAN_POINT ( 'NONE',  ( 0.0000000000000000000, 4.062363853051271800, 0.0000000000000000000 ) ) ;
#9 = CYLINDRICAL_SURFACE ( 'NONE', #7, 2.500000000000000400 ) ;
#10 = DIRECTION ( 'NONE',  ( 0.0000000000000000000, 0.0000000000000000000, 1.000000000000000000 ) ) ;
#11 = DIRECTION ( 'NONE',  ( -0.0000000000000000000, 1.000000000000000000, -0.0000000000000000000 ) ) ;
#12 = AXIS2_PLACEMENT_3D ( 'NONE', #14, #11, #10 ) ;
#13 = FACE_OUTER_BOUND ( 'NONE', #64, .T. ) ;
#14 = CARTESIAN_POINT ( 'NONE',  ( 0.0000000000000000000, 4.062363853051271800, 0.0000000000000000000 ) ) ;
#15 = CYLINDRICAL_SURFACE ( 'NONE', #12, 4.500000000000000900 ) ;
#16 = DIRECTION ( 'NONE',  ( 0.0000000000000000000, -0.0000000000000000000, -1.000000000000000000 ) ) ;
#17 = DIRECTION ( 'NONE',  ( 0.0000000000000000000, -1.000000000000000000, 0.0000000000000000000 ) ) ;
#18 = CARTESIAN_POINT ( 'NONE',  ( 2.500000000000000400, 1.000000000000000000, 0.0000000000000000000 ) ) ;
#19 = FACE_OUTER_BOUND ( 'NONE', #60, .T. ) ;
#20 = AXIS2_PLACEMENT_3D ( 'NONE', #18, #17, #16 ) ;
#21 = PLANE ( 'NONE',  #20 ) ;
#22 = FACE_OUTER_BOUND ( 'NONE', #56, .T. ) ;
#23 = DIRECTION ( 'NONE',  ( 0.0000000000000000000, 0.0000000000000000000, 1.000000000000000000 ) ) ;
#24 = DIRECTION ( 'NONE',  ( -0.0000000000000000000, 1.000000000000000000, -0.0000000000000000000 ) ) ;
#25 = AXIS2_PLACEMENT_3D ( 'NONE', #27, #24, #23 ) ;
#26 = FACE_BOUND ( 'NONE', #159, .T. ) ;
#27 = CARTESIAN_POINT ( 'NONE',  ( 0.0000000000000000000, 4.062363853051271800, 0.0000000000000000000 ) ) ;
#28 = CYLINDRICAL_SURFACE ( 'NONE', #25, 4.500000000000000900 ) ;
#29 = FACE_OUTER_BOUND ( 'NONE', #155, .T. ) ;
#30 = DIRECTION ( 'NONE',  ( 0.0000000000000000000, 0.0000000000000000000, 1.000000000000000000 ) ) ;
#31 = DIRECTION ( 'NONE',  ( -0.0000000000000000000, 1.000000000000000000, -0.0000000000000000000 ) ) ;
#32 = AXIS2_PLACEMENT_3D ( 'NONE', #148, #31, #30 ) ;
#33 = CIRCLE ( 'NONE', #32, 4.500000000000000900 ) ;
#34 = CARTESIAN_POINT ( 'NONE',  ( 0.0000000000000000000, 1.000000000000000000, 4.500000000000000900 ) ) ;
#35 = DIRECTION ( 'NONE',  ( 0.0000000000000000000, 0.0000000000000000000, 1.000000000000000000 ) ) ;
#36 = DIRECTION ( 'NONE',  ( -0.0000000000000000000, 1.000000000000000000, -0.0000000000000000000 ) ) ;
#37 = CARTESIAN_POINT ( 'NONE',  ( 0.0000000000000000000, 0.0000000000000000000, 0.0000000000000000000 ) ) ;
#38 = AXIS2_PLACEMENT_3D ( 'NONE', #37, #36, #35 ) ;
#39 = CIRCLE ( 'NONE', #38, 2.500000000000000400 ) ;
#40 = CARTESIAN_POINT ( 'NONE',  ( 0.0000000000000000000, 1.000000000000000000, 2.500000000000000400 ) ) ;
#41 = CARTESIAN_POINT ( 'NONE',  ( 0.0000000000000000000, 0.0000000000000000000, 2.500000000000000400 ) ) ;
#42 = DIRECTION ( 'NONE',  ( -0.0000000000000000000, 1.000000000000000000, -0.0000000000000000000 ) ) ;
#43 = VECTOR ( 'NONE', #42, 1000.000000000000000 ) ;
#44 = CARTESIAN_POINT ( 'NONE',  ( 3.061515884555943600E-016, 4.062363853051271800, -2.500000000000000400 ) ) ;
#45 = LINE ( 'NONE', #44, #43 ) ;
#46 = ORIENTED_EDGE ( 'NONE', *, *, #68, .F. ) ;
#47 = ORIENTED_EDGE ( 'NONE', *, *, #89, .F. ) ;
#48 = ORIENTED_EDGE ( 'NONE', *, *, #52, .F. ) ;
#49 = EDGE_LOOP ( 'NONE', ( #50, #151 ) ) ;
#50 = ORIENTED_EDGE ( 'NONE', *, *, #161, .T. ) ;
#51 = ORIENTED_EDGE ( 'NONE', *, *, #52, .T. ) ;
#52 = EDGE_CURVE ( 'NONE', #88, #90, #147, .T. ) ;
#53 = EDGE_CURVE ( 'NONE', #83, #79, #33, .T. ) ;
#54 = ADVANCED_FACE ( 'NONE', ( #29 ), #28, .T. ) ;
#55 = ORIENTED_EDGE ( 'NONE', *, *, #158, .F. ) ;
#56 = EDGE_LOOP ( 'NONE', ( #57, #58 ) ) ;
#57 = ORIENTED_EDGE ( 'NONE', *, *, #80, .T. ) ;
#58 = ORIENTED_EDGE ( 'NONE', *, *, #53, .T. ) ;
#59 = ADVANCED_FACE ( 'NONE', ( #26, #22 ), #21, .F. ) ;
#60 = EDGE_LOOP ( 'NONE', ( #91, #87, #85, #77 ) ) ;
#61 = MANIFOLD_SOLID_BREP ( 'NONE', #152 ) ;
#62 = ADVANCED_FACE ( 'NONE', ( #19 ), #15, .T. ) ;
#63 = ADVANCED_FACE ( 'NONE', ( #13 ), #9, .F. ) ;
#64 = EDGE_LOOP ( 'NONE', ( #86, #157, #160, #162 ) ) ;
#65 = EDGE_CURVE ( 'NONE', #74, #75, #4, .T. ) ;
#66 = VERTEX_POINT ( 'NONE', #98 ) ;
#67 = ORIENTED_EDGE ( 'NONE', *, *, #68, .T. ) ;
#68 = EDGE_CURVE ( 'NONE', #70, #75, #97, .T. ) ;
#69 = ORIENTED_EDGE ( 'NONE', *, *, #65, .F. ) ;
#70 = VERTEX_POINT ( 'NONE', #92 ) ;
#71 = ORIENTED_EDGE ( 'NONE', *, *, #72, .T. ) ;
#72 = EDGE_CURVE ( 'NONE', #66, #70, #45, .T. ) ;
#73 = ORIENTED_EDGE ( 'NONE', *, *, #76, .F. ) ;
#74 = VERTEX_POINT ( 'NONE', #41 ) ;
#75 = VERTEX_POINT ( 'NONE', #40 ) ;
#76 = EDGE_CURVE ( 'NONE', #66, #74, #39, .T. ) ;
#77 = ORIENTED_EDGE ( 'NONE', *, *, #82, .F. ) ;
#78 = EDGE_LOOP ( 'NONE', ( #73, #71, #67, #69 ) ) ;
#79 = VERTEX_POINT ( 'NONE', #34 ) ;
#80 = EDGE_CURVE ( 'NONE', #79, #83, #142, .T. ) ;
#81 = ADVANCED_FACE ( 'NONE', ( #137 ), #136, .F. ) ;
#82 = EDGE_CURVE ( 'NONE', #90, #79, #131, .T. ) ;
#83 = VERTEX_POINT ( 'NONE', #127 ) ;
#84 = EDGE_CURVE ( 'NONE', #88, #83, #126, .T. ) ;
#85 = ORIENTED_EDGE ( 'NONE', *, *, #80, .F. ) ;
#86 = ORIENTED_EDGE ( 'NONE', *, *, #72, .F. ) ;
#87 = ORIENTED_EDGE ( 'NONE', *, *, #84, .T. ) ;
#88 = VERTEX_POINT ( 'NONE', #122 ) ;
#89 = EDGE_CURVE ( 'NONE', #90, #88, #121, .T. ) ;
#90 = VERTEX_POINT ( 'NONE', #116 ) ;
#91 = ORIENTED_EDGE ( 'NONE', *, *, #89, .T. ) ;
#92 = CARTESIAN_POINT ( 'NONE',  ( 3.061515884555943600E-016, 1.000000000000000000, -2.500000000000000400 ) ) ;
#93 = DIRECTION ( 'NONE',  ( 0.0000000000000000000, 0.0000000000000000000, 1.000000000000000000 ) ) ;
#94 = DIRECTION ( 'NONE',  ( -0.0000000000000000000, 1.000000000000000000, -0.0000000000000000000 ) ) ;
#95 = CARTESIAN_POINT ( 'NONE',  ( 0.0000000000000000000, 1.000000000000000000, 0.0000000000000000000 ) ) ;
#96 = AXIS2_PLACEMENT_3D ( 'NONE', #95, #94, #93 ) ;
#97 = CIRCLE ( 'NONE', #96, 2.500000000000000400 ) ;
#98 = CARTESIAN_POINT ( 'NONE',  ( 3.061515884555943600E-016, 0.0000000000000000000, -2.500000000000000400 ) ) ;
#99 = DIRECTION ( 'NONE',  ( -0.0000000000000000000, 1.000000000000000000, -0.0000000000000000000 ) ) ;
#100 = VECTOR ( 'NONE', #99, 1000.000000000000000 ) ;
#101 = CARTESIAN_POINT ( 'NONE',  ( 0.0000000000000000000, 4.062363853051271800, 2.500000000000000400 ) ) ;
#102 = AXIS2_PLACEMENT_3D ( 'NONE', #2, #1, #3 ) ;
#103 = CIRCLE ( 'NONE', #102, 2.500000000000000400 ) ;
#104 = DIRECTION ( 'NONE',  ( 0.0000000000000000000, 0.0000000000000000000, 1.000000000000000000 ) ) ;
#105 = DIRECTION ( 'NONE',  ( -0.0000000000000000000, 1.000000000000000000, -0.0000000000000000000 ) ) ;
#106 = CARTESIAN_POINT ( 'NONE',  ( 0.0000000000000000000, 1.000000000000000000, 0.0000000000000000000 ) ) ;
#107 = AXIS2_PLACEMENT_3D ( 'NONE', #106, #105, #104 ) ;
#108 = DIRECTION ( 'NONE',  ( 0.0000000000000000000, 0.0000000000000000000, 1.000000000000000000 ) ) ;
#109 = DIRECTION ( 'NONE',  ( -0.0000000000000000000, 1.000000000000000000, 0.0000000000000000000 ) ) ;
#110 = CARTESIAN_POINT ( 'NONE',  ( 2.500000000000000400, 0.0000000000000000000, 0.0000000000000000000 ) ) ;
#111 = CIRCLE ( 'NONE', #107, 2.500000000000000400 ) ;
#112 = AXIS2_PLACEMENT_3D ( 'NONE', #110, #109, #108 ) ;
#113 = PLANE ( 'NONE',  #112 ) ;
#114 = FACE_BOUND ( 'NONE', #49, .T. ) ;
#115 = FACE_OUTER_BOUND ( 'NONE', #150, .T. ) ;
#116 = CARTESIAN_POINT ( 'NONE',  ( 0.0000000000000000000, 0.0000000000000000000, 4.500000000000000900 ) ) ;
#117 = DIRECTION ( 'NONE',  ( 0.0000000000000000000, 0.0000000000000000000, 1.000000000000000000 ) ) ;
#118 = DIRECTION ( 'NONE',  ( -0.0000000000000000000, 1.000000000000000000, -0.0000000000000000000 ) ) ;
#119 = CARTESIAN_POINT ( 'NONE',  ( 0.0000000000000000000, 0.0000000000000000000, 0.0000000000000000000 ) ) ;
#120 = AXIS2_PLACEMENT_3D ( 'NONE', #119, #118, #117 ) ;
#121 = CIRCLE ( 'NONE', #120, 4.500000000000000900 ) ;
#122 = CARTESIAN_POINT ( 'NONE',  ( 5.510728592200698600E-016, 0.0000000000000000000, -4.500000000000000900 ) ) ;
#123 = DIRECTION ( 'NONE',  ( -0.0000000000000000000, 1.000000000000000000, -0.0000000000000000000 ) ) ;
#124 = VECTOR ( 'NONE', #123, 1000.000000000000000 ) ;
#125 = CARTESIAN_POINT ( 'NONE',  ( 5.510728592200698600E-016, 4.062363853051271800, -4.500000000000000900 ) ) ;
#126 = LINE ( 'NONE', #125, #124 ) ;
#127 = CARTESIAN_POINT ( 'NONE',  ( 5.510728592200698600E-016, 1.000000000000000000, -4.500000000000000900 ) ) ;
#128 = DIRECTION ( 'NONE',  ( -0.0000000000000000000, 1.000000000000000000, -0.0000000000000000000 ) ) ;
#129 = VECTOR ( 'NONE', #128, 1000.000000000000000 ) ;
#130 = CARTESIAN_POINT ( 'NONE',  ( 0.0000000000000000000, 4.062363853051271800, 4.500000000000000900 ) ) ;
#131 = LINE ( 'NONE', #130, #129 ) ;
#132 = DIRECTION ( 'NONE',  ( 0.0000000000000000000, 0.0000000000000000000, 1.000000000000000000 ) ) ;
#133 = DIRECTION ( 'NONE',  ( -0.0000000000000000000, 1.000000000000000000, -0.0000000000000000000 ) ) ;
#134 = AXIS2_PLACEMENT_3D ( 'NONE', #135, #133, #132 ) ;
#135 = CARTESIAN_POINT ( 'NONE',  ( 0.0000000000000000000, 4.062363853051271800, 0.0000000000000000000 ) ) ;
#136 = CYLINDRICAL_SURFACE ( 'NONE', #134, 2.500000000000000400 ) ;
#137 = FACE_OUTER_BOUND ( 'NONE', #78, .T. ) ;
#138 = DIRECTION ( 'NONE',  ( 0.0000000000000000000, 0.0000000000000000000, 1.000000000000000000 ) ) ;
#139 = DIRECTION ( 'NONE',  ( -0.0000000000000000000, 1.000000000000000000, -0.0000000000000000000 ) ) ;
#140 = CARTESIAN_POINT ( 'NONE',  ( 0.0000000000000000000, 1.000000000000000000, 0.0000000000000000000 ) ) ;
#141 = AXIS2_PLACEMENT_3D ( 'NONE', #140, #139, #138 ) ;
#142 = CIRCLE ( 'NONE', #141, 4.500000000000000900 ) ;
#143 = DIRECTION ( 'NONE',  ( 0.0000000000000000000, 0.0000000000000000000, 1.000000000000000000 ) ) ;
#144 = DIRECTION ( 'NONE',  ( -0.0000000000000000000, 1.000000000000000000, -0.0000000000000000000 ) ) ;
#145 = CARTESIAN_POINT ( 'NONE',  ( 0.0000000000000000000, 0.0000000000000000000, 0.0000000000000000000 ) ) ;
#146 = AXIS2_PLACEMENT_3D ( 'NONE', #145, #144, #143 ) ;
#147 = CIRCLE ( 'NONE', #146, 4.500000000000000900 ) ;
#148 = CARTESIAN_POINT ( 'NONE',  ( 0.0000000000000000000, 1.000000000000000000, 0.0000000000000000000 ) ) ;
#149 = ADVANCED_FACE ( 'NONE', ( #115, #114 ), #113, .F. ) ;
#150 = EDGE_LOOP ( 'NONE', ( #47, #48 ) ) ;
#151 = ORIENTED_EDGE ( 'NONE', *, *, #76, .T. ) ;
#152 = CLOSED_SHELL ( 'NONE', ( #62, #81, #63, #59, #54, #149 ) ) ;
#153 = ORIENTED_EDGE ( 'NONE', *, *, #82, .T. ) ;
#154 = ORIENTED_EDGE ( 'NONE', *, *, #53, .F. ) ;
#155 = EDGE_LOOP ( 'NONE', ( #156, #51, #153, #154 ) ) ;
#156 = ORIENTED_EDGE ( 'NONE', *, *, #84, .F. ) ;
#157 = ORIENTED_EDGE ( 'NONE', *, *, #161, .F. ) ;
#158 = EDGE_CURVE ( 'NONE', #75, #70, #111, .T. ) ;
#159 = EDGE_LOOP ( 'NONE', ( #55, #46 ) ) ;
#160 = ORIENTED_EDGE ( 'NONE', *, *, #65, .T. ) ;
#161 = EDGE_CURVE ( 'NONE', #74, #66, #103, .T. ) ;
#162 = ORIENTED_EDGE ( 'NONE', *, *, #158, .T. ) ;
#163 = DIRECTION ( 'NONE',  ( 0.0000000000000000000, 0.0000000000000000000, 1.000000000000000000 ) ) ;
#164 = CC_DESIGN_PERSON_AND_ORGANIZATION_ASSIGNMENT ( #166, #165, ( #231 ) ) ;
#165 = PERSON_AND_ORGANIZATION_ROLE ( 'creator' ) ;
#166 = PERSON_AND_ORGANIZATION ( #246, #216 ) ;
#167 = CC_DESIGN_APPROVAL ( #175, ( #231 ) ) ;
#168 = APPROVAL_DATE_TIME ( #169, #175 ) ;
#169 = DATE_AND_TIME ( #170, #171 ) ;
#170 = CALENDAR_DATE ( 2009, 2, 12 ) ;
#171 = LOCAL_TIME ( 10, 1, 43.00000000000000000, #172 ) ;
#172 = COORDINATED_UNIVERSAL_TIME_OFFSET ( 1, 0, .AHEAD. ) ;
#173 = APPROVAL_PERSON_ORGANIZATION ( #230, #175, #174 ) ;
#174 = APPROVAL_ROLE ( '' ) ;
#175 = APPROVAL ( #229, 'UNSPECIFIED' ) ;
#176 = UNCERTAINTY_MEASURE_WITH_UNIT (LENGTH_MEASURE( 1.000000000000000100E-005 ), #228, 'distance_accuracy_value', 'NONE');
#177 =( GEOMETRIC_REPRESENTATION_CONTEXT ( 3 ) GLOBAL_UNCERTAINTY_ASSIGNED_CONTEXT ( ( #176 ) ) GLOBAL_UNIT_ASSIGNED_CONTEXT ( ( #228, #212, #199 ) ) REPRESENTATION_CONTEXT ( 'NONE', 'WORKASPACE' ) );
#178 = LOCAL_TIME ( 10, 1, 43.00000000000000000, #179 ) ;
#179 = COORDINATED_UNIVERSAL_TIME_OFFSET ( 1, 0, .AHEAD. ) ;
#180 = CC_DESIGN_PERSON_AND_ORGANIZATION_ASSIGNMENT ( #182, #181, ( #183 ) ) ;
#181 = PERSON_AND_ORGANIZATION_ROLE ( 'classification_officer' ) ;
#182 = PERSON_AND_ORGANIZATION ( #246, #216 ) ;
#183 = SECURITY_CLASSIFICATION ( '', '', #184 ) ;
#184 = SECURITY_CLASSIFICATION_LEVEL ( 'unclassified' ) ;
#185 = CC_DESIGN_PERSON_AND_ORGANIZATION_ASSIGNMENT ( #187, #186, ( #220 ) ) ;
#186 = PERSON_AND_ORGANIZATION_ROLE ( 'design_supplier' ) ;
#187 = PERSON_AND_ORGANIZATION ( #246, #216 ) ;
#188 = CC_DESIGN_PERSON_AND_ORGANIZATION_ASSIGNMENT ( #190, #189, ( #220 ) ) ;
#189 = PERSON_AND_ORGANIZATION_ROLE ( 'creator' ) ;
#190 = PERSON_AND_ORGANIZATION ( #246, #216 ) ;
#191 = CC_DESIGN_APPROVAL ( #217, ( #220 ) ) ;
#192 = APPROVAL_DATE_TIME ( #193, #217 ) ;
#193 = DATE_AND_TIME ( #194, #195 ) ;
#194 = CALENDAR_DATE ( 2009, 2, 12 ) ;
#195 = LOCAL_TIME ( 10, 1, 43.00000000000000000, #196 ) ;
#196 = COORDINATED_UNIVERSAL_TIME_OFFSET ( 1, 0, .AHEAD. ) ;
#197 = APPROVAL_PERSON_ORGANIZATION ( #219, #217, #198 ) ;
#198 = APPROVAL_ROLE ( '' ) ;
#199 =( NAMED_UNIT ( * ) SI_UNIT ( $, .STERADIAN. ) SOLID_ANGLE_UNIT ( ) );
#200 = CALENDAR_DATE ( 2009, 2, 12 ) ;
#201 = LOCAL_TIME ( 10, 1, 43.00000000000000000, #202 ) ;
#202 = COORDINATED_UNIVERSAL_TIME_OFFSET ( 1, 0, .AHEAD. ) ;
#203 = APPROVAL_PERSON_ORGANIZATION ( #207, #205, #204 ) ;
#204 = APPROVAL_ROLE ( '' ) ;
#205 = APPROVAL ( #206, 'UNSPECIFIED' ) ;
#206 = APPROVAL_STATUS ( 'not_yet_approved' ) ;
#207 = PERSON_AND_ORGANIZATION ( #246, #216 ) ;
#208 = CC_DESIGN_DATE_AND_TIME_ASSIGNMENT ( #210, #209, ( #183 ) ) ;
#209 = DATE_TIME_ROLE ( 'classification_date' ) ;
#210 = DATE_AND_TIME ( #211, #178 ) ;
#211 = CALENDAR_DATE ( 2009, 2, 12 ) ;
#212 =( NAMED_UNIT ( * ) PLANE_ANGLE_UNIT ( ) SI_UNIT ( $, .RADIAN. ) );
#213 = SHAPE_DEFINITION_REPRESENTATION ( #237, #227 ) ;
#214 = APPLICATION_CONTEXT ( 'configuration controlled 3d designs of mechanical parts and assemblies' ) ;
#215 = PERSON_AND_ORGANIZATION ( #246, #216 ) ;
#216 = ORGANIZATION ( 'UNSPECIFIED', 'UNSPECIFIED', '' ) ;
#217 = APPROVAL ( #218, 'UNSPECIFIED' ) ;
#218 = APPROVAL_STATUS ( 'not_yet_approved' ) ;
#219 = PERSON_AND_ORGANIZATION ( #246, #216 ) ;
#220 = PRODUCT_DEFINITION_FORMATION_WITH_SPECIFIED_SOURCE ( 'ANY', '', #247, .NOT_KNOWN. ) ;
#221 = CC_DESIGN_DATE_AND_TIME_ASSIGNMENT ( #223, #222, ( #231 ) ) ;
#222 = DATE_TIME_ROLE ( 'creation_date' ) ;
#223 = DATE_AND_TIME ( #224, #225 ) ;
#224 = CALENDAR_DATE ( 2009, 2, 12 ) ;
#225 = LOCAL_TIME ( 10, 1, 43.00000000000000000, #226 ) ;
#226 = COORDINATED_UNIVERSAL_TIME_OFFSET ( 1, 0, .AHEAD. ) ;
#227 = ADVANCED_BREP_SHAPE_REPRESENTATION ( 'A0200000', ( #61, #244 ), #177 ) ;
#228 =( LENGTH_UNIT ( ) NAMED_UNIT ( * ) SI_UNIT ( .MILLI., .METRE. ) );
#229 = APPROVAL_STATUS ( 'not_yet_approved' ) ;
#230 = PERSON_AND_ORGANIZATION ( #246, #216 ) ;
#231 = PRODUCT_DEFINITION ( 'UNKNOWN', '', #220, #232 ) ;
#232 = DESIGN_CONTEXT ( 'detailed design', #234, 'design' ) ;
#233 = APPLICATION_PROTOCOL_DEFINITION ( 'international standard', 'config_control_design', 1994, #234 ) ;
#234 = APPLICATION_CONTEXT ( 'configuration controlled 3d designs of mechanical parts and assemblies' ) ;
#235 = CC_DESIGN_PERSON_AND_ORGANIZATION_ASSIGNMENT ( #215, #236, ( #247 ) ) ;
#236 = PERSON_AND_ORGANIZATION_ROLE ( 'design_owner' ) ;
#237 = PRODUCT_DEFINITION_SHAPE ( 'NONE', 'NONE',  #231 ) ;
#238 = PRODUCT_RELATED_PRODUCT_CATEGORY ( 'detail', '', ( #247 ) ) ;
#239 = CC_DESIGN_SECURITY_CLASSIFICATION ( #183, ( #220 ) ) ;
#240 = CC_DESIGN_APPROVAL ( #205, ( #183 ) ) ;
#241 = APPROVAL_DATE_TIME ( #242, #205 ) ;
#242 = DATE_AND_TIME ( #200, #201 ) ;
#243 = CARTESIAN_POINT ( 'NONE',  ( 0.0000000000000000000, 0.0000000000000000000, 0.0000000000000000000 ) ) ;
#244 = AXIS2_PLACEMENT_3D ( 'NONE', #243, #163, #245 ) ;
#245 = DIRECTION ( 'NONE',  ( 1.000000000000000000, 0.0000000000000000000, 0.0000000000000000000 ) ) ;
#246 = PERSON ( 'UNSPECIFIED', 'UNSPECIFIED', 'UNSPECIFIED', ('UNSPECIFIED'), ('UNSPECIFIED'), ('UNSPECIFIED') ) ;
#247 = PRODUCT ( 'A0200000', 'A0200000', '', ( #248 ) ) ;
#248 = MECHANICAL_CONTEXT ( 'NONE', #214, 'mechanical' ) ;
#249 = APPLICATION_PROTOCOL_DEFINITION ( 'international standard', 'config_control_design', 1994, #214 ) ;
ENDSEC;
END-ISO-10303-21;
