ISO-10303-21;
HEADER;
FILE_DESCRIPTION(( 'MA.30.00.38.STEP' ), '1');
FILE_NAME( 'MA.30.00.38.STEP', '2018-10-01T14:08:53',( 'Sopra'),('sopra-pneumatic.com'), 'SwSTEP 2.0','SolidWorks 2009','' );
FILE_SCHEMA (( 'CONFIG_CONTROL_DESIGN' ));
ENDSEC;

DATA;
#1 = ORIENTED_EDGE ( 'NONE', *, *, #60, .F. ) ;
#2 = ORIENTED_EDGE ( 'NONE', *, *, #8, .F. ) ;
#3 = ADVANCED_FACE ( 'NONE', ( #70 ), #69, .F. ) ;
#4 = ORIENTED_EDGE ( 'NONE', *, *, #17, .T. ) ;
#5 = ORIENTED_EDGE ( 'NONE', *, *, #6, .F. ) ;
#6 = EDGE_CURVE ( 'NONE', #56, #45, #109, .T. ) ;
#7 = EDGE_LOOP ( 'NONE', ( #32, #33 ) ) ;
#8 = EDGE_CURVE ( 'NONE', #28, #27, #105, .T. ) ;
#9 = DIRECTION ( 'NONE',  ( 0.0000000000000000000, 0.0000000000000000000, 1.000000000000000000 ) ) ;
#10 = CIRCLE ( 'NONE', #11, 11.00000000000000000 ) ;
#11 = AXIS2_PLACEMENT_3D ( 'NONE', #13, #12, #9 ) ;
#12 = DIRECTION ( 'NONE',  ( -0.0000000000000000000, 1.000000000000000000, -0.0000000000000000000 ) ) ;
#13 = CARTESIAN_POINT ( 'NONE',  ( 0.0000000000000000000, 1.500000000000000000, 0.0000000000000000000 ) ) ;
#14 = EDGE_LOOP ( 'NONE', ( #54, #58, #43, #5 ) ) ;
#15 = VERTEX_POINT ( 'NONE', #100 ) ;
#16 = ORIENTED_EDGE ( 'NONE', *, *, #17, .F. ) ;
#17 = EDGE_CURVE ( 'NONE', #28, #15, #88, .T. ) ;
#18 = ADVANCED_FACE ( 'NONE', ( #84 ), #83, .F. ) ;
#19 = EDGE_LOOP ( 'NONE', ( #1, #2, #4, #29 ) ) ;
#20 = CLOSED_SHELL ( 'NONE', ( #46, #3, #18, #31, #38, #48 ) ) ;
#21 = ORIENTED_EDGE ( 'NONE', *, *, #8, .T. ) ;
#22 = ORIENTED_EDGE ( 'NONE', *, *, #26, .T. ) ;
#23 = ORIENTED_EDGE ( 'NONE', *, *, #52, .F. ) ;
#24 = EDGE_LOOP ( 'NONE', ( #25, #59, #62, #16 ) ) ;
#25 = ORIENTED_EDGE ( 'NONE', *, *, #26, .F. ) ;
#26 = EDGE_CURVE ( 'NONE', #27, #28, #78, .T. ) ;
#27 = VERTEX_POINT ( 'NONE', #73 ) ;
#28 = VERTEX_POINT ( 'NONE', #72 ) ;
#29 = ORIENTED_EDGE ( 'NONE', *, *, #30, .T. ) ;
#30 = EDGE_CURVE ( 'NONE', #15, #61, #71, .T. ) ;
#31 = ADVANCED_FACE ( 'NONE', ( #95, #94 ), #93, .F. ) ;
#32 = ORIENTED_EDGE ( 'NONE', *, *, #30, .F. ) ;
#33 = ORIENTED_EDGE ( 'NONE', *, *, #63, .F. ) ;
#34 = EDGE_LOOP ( 'NONE', ( #35, #36 ) ) ;
#35 = ORIENTED_EDGE ( 'NONE', *, *, #44, .T. ) ;
#36 = ORIENTED_EDGE ( 'NONE', *, *, #37, .T. ) ;
#37 = EDGE_CURVE ( 'NONE', #42, #45, #10, .T. ) ;
#38 = ADVANCED_FACE ( 'NONE', ( #135 ), #236, .T. ) ;
#39 = EDGE_LOOP ( 'NONE', ( #40, #53, #65, #51 ) ) ;
#40 = ORIENTED_EDGE ( 'NONE', *, *, #41, .F. ) ;
#41 = EDGE_CURVE ( 'NONE', #57, #42, #134, .T. ) ;
#42 = VERTEX_POINT ( 'NONE', #137 ) ;
#43 = ORIENTED_EDGE ( 'NONE', *, *, #44, .F. ) ;
#44 = EDGE_CURVE ( 'NONE', #45, #42, #245, .T. ) ;
#45 = VERTEX_POINT ( 'NONE', #140 ) ;
#46 = ADVANCED_FACE ( 'NONE', ( #152 ), #149, .T. ) ;
#47 = EDGE_LOOP ( 'NONE', ( #21, #22 ) ) ;
#48 = ADVANCED_FACE ( 'NONE', ( #151, #150 ), #115, .F. ) ;
#49 = ORIENTED_EDGE ( 'NONE', *, *, #55, .F. ) ;
#50 = EDGE_LOOP ( 'NONE', ( #49, #23 ) ) ;
#51 = ORIENTED_EDGE ( 'NONE', *, *, #37, .F. ) ;
#52 = EDGE_CURVE ( 'NONE', #57, #56, #128, .T. ) ;
#53 = ORIENTED_EDGE ( 'NONE', *, *, #52, .T. ) ;
#54 = ORIENTED_EDGE ( 'NONE', *, *, #55, .T. ) ;
#55 = EDGE_CURVE ( 'NONE', #56, #57, #148, .T. ) ;
#56 = VERTEX_POINT ( 'NONE', #154 ) ;
#57 = VERTEX_POINT ( 'NONE', #141 ) ;
#58 = ORIENTED_EDGE ( 'NONE', *, *, #41, .T. ) ;
#59 = ORIENTED_EDGE ( 'NONE', *, *, #60, .T. ) ;
#60 = EDGE_CURVE ( 'NONE', #27, #61, #214, .T. ) ;
#61 = VERTEX_POINT ( 'NONE', #210 ) ;
#62 = ORIENTED_EDGE ( 'NONE', *, *, #63, .T. ) ;
#63 = EDGE_CURVE ( 'NONE', #61, #15, #121, .T. ) ;
#64 = MANIFOLD_SOLID_BREP ( 'NONE', #20 ) ;
#65 = ORIENTED_EDGE ( 'NONE', *, *, #6, .T. ) ;
#66 = DIRECTION ( 'NONE',  ( 0.0000000000000000000, 0.0000000000000000000, 1.000000000000000000 ) ) ;
#67 = DIRECTION ( 'NONE',  ( -0.0000000000000000000, 1.000000000000000000, -0.0000000000000000000 ) ) ;
#68 = AXIS2_PLACEMENT_3D ( 'NONE', #110, #67, #66 ) ;
#69 = CYLINDRICAL_SURFACE ( 'NONE', #68, 8.500000000000000000 ) ;
#70 = FACE_OUTER_BOUND ( 'NONE', #24, .T. ) ;
#71 = CIRCLE ( 'NONE', #99, 8.500000000000000000 ) ;
#72 = CARTESIAN_POINT ( 'NONE',  ( 0.0000000000000000000, 0.0000000000000000000, 8.500000000000000000 ) ) ;
#73 = CARTESIAN_POINT ( 'NONE',  ( 1.040915400749020900E-015, 0.0000000000000000000, -8.500000000000000000 ) ) ;
#74 = DIRECTION ( 'NONE',  ( 0.0000000000000000000, 0.0000000000000000000, 1.000000000000000000 ) ) ;
#75 = DIRECTION ( 'NONE',  ( -0.0000000000000000000, 1.000000000000000000, -0.0000000000000000000 ) ) ;
#76 = CARTESIAN_POINT ( 'NONE',  ( 0.0000000000000000000, 0.0000000000000000000, 0.0000000000000000000 ) ) ;
#77 = AXIS2_PLACEMENT_3D ( 'NONE', #76, #75, #74 ) ;
#78 = CIRCLE ( 'NONE', #77, 8.500000000000000000 ) ;
#79 = DIRECTION ( 'NONE',  ( 0.0000000000000000000, 0.0000000000000000000, 1.000000000000000000 ) ) ;
#80 = DIRECTION ( 'NONE',  ( -0.0000000000000000000, 1.000000000000000000, -0.0000000000000000000 ) ) ;
#81 = AXIS2_PLACEMENT_3D ( 'NONE', #82, #80, #79 ) ;
#82 = CARTESIAN_POINT ( 'NONE',  ( 0.0000000000000000000, 4.062363853051271800, 0.0000000000000000000 ) ) ;
#83 = CYLINDRICAL_SURFACE ( 'NONE', #81, 8.500000000000000000 ) ;
#84 = FACE_OUTER_BOUND ( 'NONE', #19, .T. ) ;
#85 = DIRECTION ( 'NONE',  ( -0.0000000000000000000, 1.000000000000000000, -0.0000000000000000000 ) ) ;
#86 = VECTOR ( 'NONE', #85, 1000.000000000000000 ) ;
#87 = CARTESIAN_POINT ( 'NONE',  ( 0.0000000000000000000, 4.062363853051271800, 8.500000000000000000 ) ) ;
#88 = LINE ( 'NONE', #87, #86 ) ;
#89 = DIRECTION ( 'NONE',  ( 0.0000000000000000000, -0.0000000000000000000, -1.000000000000000000 ) ) ;
#90 = DIRECTION ( 'NONE',  ( 0.0000000000000000000, -1.000000000000000000, 0.0000000000000000000 ) ) ;
#91 = CARTESIAN_POINT ( 'NONE',  ( 8.500000000000000000, 1.500000000000000000, 0.0000000000000000000 ) ) ;
#92 = AXIS2_PLACEMENT_3D ( 'NONE', #91, #90, #89 ) ;
#93 = PLANE ( 'NONE',  #92 ) ;
#94 = FACE_OUTER_BOUND ( 'NONE', #34, .T. ) ;
#95 = FACE_BOUND ( 'NONE', #7, .T. ) ;
#96 = DIRECTION ( 'NONE',  ( 0.0000000000000000000, 0.0000000000000000000, 1.000000000000000000 ) ) ;
#97 = DIRECTION ( 'NONE',  ( -0.0000000000000000000, 1.000000000000000000, -0.0000000000000000000 ) ) ;
#98 = CARTESIAN_POINT ( 'NONE',  ( 0.0000000000000000000, 1.500000000000000000, 0.0000000000000000000 ) ) ;
#99 = AXIS2_PLACEMENT_3D ( 'NONE', #98, #97, #96 ) ;
#100 = CARTESIAN_POINT ( 'NONE',  ( 0.0000000000000000000, 1.500000000000000000, 8.500000000000000000 ) ) ;
#101 = DIRECTION ( 'NONE',  ( 0.0000000000000000000, 0.0000000000000000000, 1.000000000000000000 ) ) ;
#102 = DIRECTION ( 'NONE',  ( -0.0000000000000000000, 1.000000000000000000, -0.0000000000000000000 ) ) ;
#103 = CARTESIAN_POINT ( 'NONE',  ( 0.0000000000000000000, 0.0000000000000000000, 0.0000000000000000000 ) ) ;
#104 = AXIS2_PLACEMENT_3D ( 'NONE', #103, #102, #101 ) ;
#105 = CIRCLE ( 'NONE', #104, 8.500000000000000000 ) ;
#106 = DIRECTION ( 'NONE',  ( -0.0000000000000000000, 1.000000000000000000, -0.0000000000000000000 ) ) ;
#107 = VECTOR ( 'NONE', #106, 1000.000000000000000 ) ;
#108 = CARTESIAN_POINT ( 'NONE',  ( 0.0000000000000000000, 4.062363853051271800, 11.00000000000000000 ) ) ;
#109 = LINE ( 'NONE', #108, #107 ) ;
#110 = CARTESIAN_POINT ( 'NONE',  ( 0.0000000000000000000, 4.062363853051271800, 0.0000000000000000000 ) ) ;
#111 = DIRECTION ( 'NONE',  ( 0.0000000000000000000, 0.0000000000000000000, 1.000000000000000000 ) ) ;
#112 = DIRECTION ( 'NONE',  ( -0.0000000000000000000, 1.000000000000000000, -0.0000000000000000000 ) ) ;
#113 = CARTESIAN_POINT ( 'NONE',  ( 0.0000000000000000000, 0.0000000000000000000, 0.0000000000000000000 ) ) ;
#114 = AXIS2_PLACEMENT_3D ( 'NONE', #113, #112, #111 ) ;
#115 = PLANE ( 'NONE',  #158 ) ;
#116 = DIRECTION ( 'NONE',  ( 0.0000000000000000000, 0.0000000000000000000, 1.000000000000000000 ) ) ;
#117 = UNCERTAINTY_MEASURE_WITH_UNIT (LENGTH_MEASURE( 1.000000000000000100E-005 ), #215, 'distance_accuracy_value', 'NONE');
#118 =( NAMED_UNIT ( * ) SI_UNIT ( $, .STERADIAN. ) SOLID_ANGLE_UNIT ( ) );
#119 = CARTESIAN_POINT ( 'NONE',  ( 0.0000000000000000000, 1.500000000000000000, 0.0000000000000000000 ) ) ;
#120 = AXIS2_PLACEMENT_3D ( 'NONE', #119, #218, #217 ) ;
#121 = CIRCLE ( 'NONE', #120, 8.500000000000000000 ) ;
#122 = DIRECTION ( 'NONE',  ( -0.0000000000000000000, 1.000000000000000000, -0.0000000000000000000 ) ) ;
#123 = CARTESIAN_POINT ( 'NONE',  ( 0.0000000000000000000, 1.500000000000000000, 0.0000000000000000000 ) ) ;
#124 = AXIS2_PLACEMENT_3D ( 'NONE', #123, #122, #153 ) ;
#125 = DIRECTION ( 'NONE',  ( 0.0000000000000000000, 0.0000000000000000000, 1.000000000000000000 ) ) ;
#126 = DIRECTION ( 'NONE',  ( -0.0000000000000000000, 1.000000000000000000, -0.0000000000000000000 ) ) ;
#127 = AXIS2_PLACEMENT_3D ( 'NONE', #147, #126, #125 ) ;
#128 = CIRCLE ( 'NONE', #127, 11.00000000000000000 ) ;
#129 = PRODUCT_DEFINITION_SHAPE ( 'NONE', 'NONE',  #230 ) ;
#130 = PRODUCT_RELATED_PRODUCT_CATEGORY ( 'detail', '', ( #242 ) ) ;
#131 = DIRECTION ( 'NONE',  ( 0.0000000000000000000, 0.0000000000000000000, 1.000000000000000000 ) ) ;
#132 = DIRECTION ( 'NONE',  ( -0.0000000000000000000, 1.000000000000000000, -0.0000000000000000000 ) ) ;
#133 = CARTESIAN_POINT ( 'NONE',  ( 1.347066989204615000E-015, 4.062363853051271800, -11.00000000000000000 ) ) ;
#134 = LINE ( 'NONE', #133, #139 ) ;
#135 = FACE_OUTER_BOUND ( 'NONE', #39, .T. ) ;
#136 = AXIS2_PLACEMENT_3D ( 'NONE', #144, #132, #131 ) ;
#137 = CARTESIAN_POINT ( 'NONE',  ( 1.347066989204615000E-015, 1.500000000000000000, -11.00000000000000000 ) ) ;
#138 = DIRECTION ( 'NONE',  ( -0.0000000000000000000, 1.000000000000000000, -0.0000000000000000000 ) ) ;
#139 = VECTOR ( 'NONE', #138, 1000.000000000000000 ) ;
#140 = CARTESIAN_POINT ( 'NONE',  ( 0.0000000000000000000, 1.500000000000000000, 11.00000000000000000 ) ) ;
#141 = CARTESIAN_POINT ( 'NONE',  ( 1.347066989204615000E-015, 0.0000000000000000000, -11.00000000000000000 ) ) ;
#142 = DIRECTION ( 'NONE',  ( -0.0000000000000000000, 1.000000000000000000, -0.0000000000000000000 ) ) ;
#143 = CARTESIAN_POINT ( 'NONE',  ( 0.0000000000000000000, 4.062363853051271800, 0.0000000000000000000 ) ) ;
#144 = CARTESIAN_POINT ( 'NONE',  ( 0.0000000000000000000, 4.062363853051271800, 0.0000000000000000000 ) ) ;
#145 = ADVANCED_BREP_SHAPE_REPRESENTATION ( 'A0200003', ( #64, #248 ), #146 ) ;
#146 =( GEOMETRIC_REPRESENTATION_CONTEXT ( 3 ) GLOBAL_UNCERTAINTY_ASSIGNED_CONTEXT ( ( #117 ) ) GLOBAL_UNIT_ASSIGNED_CONTEXT ( ( #215, #238, #118 ) ) REPRESENTATION_CONTEXT ( 'NONE', 'WORKASPACE' ) );
#147 = CARTESIAN_POINT ( 'NONE',  ( 0.0000000000000000000, 0.0000000000000000000, 0.0000000000000000000 ) ) ;
#148 = CIRCLE ( 'NONE', #114, 11.00000000000000000 ) ;
#149 = CYLINDRICAL_SURFACE ( 'NONE', #219, 11.00000000000000000 ) ;
#150 = FACE_BOUND ( 'NONE', #47, .T. ) ;
#151 = FACE_OUTER_BOUND ( 'NONE', #50, .T. ) ;
#152 = FACE_OUTER_BOUND ( 'NONE', #14, .T. ) ;
#153 = DIRECTION ( 'NONE',  ( 0.0000000000000000000, 0.0000000000000000000, 1.000000000000000000 ) ) ;
#154 = CARTESIAN_POINT ( 'NONE',  ( 0.0000000000000000000, 0.0000000000000000000, 11.00000000000000000 ) ) ;
#155 = DIRECTION ( 'NONE',  ( 0.0000000000000000000, 0.0000000000000000000, 1.000000000000000000 ) ) ;
#156 = DIRECTION ( 'NONE',  ( -0.0000000000000000000, 1.000000000000000000, 0.0000000000000000000 ) ) ;
#157 = CARTESIAN_POINT ( 'NONE',  ( 8.500000000000000000, 0.0000000000000000000, 0.0000000000000000000 ) ) ;
#158 = AXIS2_PLACEMENT_3D ( 'NONE', #157, #156, #155 ) ;
#159 = CC_DESIGN_SECURITY_CLASSIFICATION ( #180, ( #199 ) ) ;
#160 = CC_DESIGN_APPROVAL ( #168, ( #180 ) ) ;
#161 = APPROVAL_DATE_TIME ( #162, #168 ) ;
#162 = DATE_AND_TIME ( #163, #164 ) ;
#163 = CALENDAR_DATE ( 2009, 2, 12 ) ;
#164 = LOCAL_TIME ( 10, 7, 44.00000000000000000, #165 ) ;
#165 = COORDINATED_UNIVERSAL_TIME_OFFSET ( 1, 0, .AHEAD. ) ;
#166 = APPROVAL_PERSON_ORGANIZATION ( #170, #168, #167 ) ;
#167 = APPROVAL_ROLE ( '' ) ;
#168 = APPROVAL ( #169, 'UNSPECIFIED' ) ;
#169 = APPROVAL_STATUS ( 'not_yet_approved' ) ;
#170 = PERSON_AND_ORGANIZATION ( #241, #240 ) ;
#171 = CC_DESIGN_DATE_AND_TIME_ASSIGNMENT ( #173, #172, ( #180 ) ) ;
#172 = DATE_TIME_ROLE ( 'classification_date' ) ;
#173 = DATE_AND_TIME ( #174, #175 ) ;
#174 = CALENDAR_DATE ( 2009, 2, 12 ) ;
#175 = LOCAL_TIME ( 10, 7, 44.00000000000000000, #176 ) ;
#176 = COORDINATED_UNIVERSAL_TIME_OFFSET ( 1, 0, .AHEAD. ) ;
#177 = CC_DESIGN_PERSON_AND_ORGANIZATION_ASSIGNMENT ( #179, #178, ( #180 ) ) ;
#178 = PERSON_AND_ORGANIZATION_ROLE ( 'classification_officer' ) ;
#179 = PERSON_AND_ORGANIZATION ( #241, #240 ) ;
#180 = SECURITY_CLASSIFICATION ( '', '', #181 ) ;
#181 = SECURITY_CLASSIFICATION_LEVEL ( 'unclassified' ) ;
#182 = CC_DESIGN_PERSON_AND_ORGANIZATION_ASSIGNMENT ( #184, #183, ( #199 ) ) ;
#183 = PERSON_AND_ORGANIZATION_ROLE ( 'design_supplier' ) ;
#184 = PERSON_AND_ORGANIZATION ( #241, #240 ) ;
#185 = CC_DESIGN_PERSON_AND_ORGANIZATION_ASSIGNMENT ( #187, #186, ( #199 ) ) ;
#186 = PERSON_AND_ORGANIZATION_ROLE ( 'creator' ) ;
#187 = PERSON_AND_ORGANIZATION ( #241, #240 ) ;
#188 = CC_DESIGN_APPROVAL ( #196, ( #199 ) ) ;
#189 = APPROVAL_DATE_TIME ( #190, #196 ) ;
#190 = DATE_AND_TIME ( #191, #192 ) ;
#191 = CALENDAR_DATE ( 2009, 2, 12 ) ;
#192 = LOCAL_TIME ( 10, 7, 44.00000000000000000, #193 ) ;
#193 = COORDINATED_UNIVERSAL_TIME_OFFSET ( 1, 0, .AHEAD. ) ;
#194 = APPROVAL_PERSON_ORGANIZATION ( #198, #196, #195 ) ;
#195 = APPROVAL_ROLE ( '' ) ;
#196 = APPROVAL ( #197, 'UNSPECIFIED' ) ;
#197 = APPROVAL_STATUS ( 'not_yet_approved' ) ;
#198 = PERSON_AND_ORGANIZATION ( #241, #240 ) ;
#199 = PRODUCT_DEFINITION_FORMATION_WITH_SPECIFIED_SOURCE ( 'ANY', '', #242, .NOT_KNOWN. ) ;
#200 = CC_DESIGN_DATE_AND_TIME_ASSIGNMENT ( #202, #201, ( #230 ) ) ;
#201 = DATE_TIME_ROLE ( 'creation_date' ) ;
#202 = DATE_AND_TIME ( #203, #204 ) ;
#203 = CALENDAR_DATE ( 2009, 2, 12 ) ;
#204 = LOCAL_TIME ( 10, 7, 44.00000000000000000, #205 ) ;
#205 = COORDINATED_UNIVERSAL_TIME_OFFSET ( 1, 0, .AHEAD. ) ;
#206 = CC_DESIGN_PERSON_AND_ORGANIZATION_ASSIGNMENT ( #208, #207, ( #230 ) ) ;
#207 = PERSON_AND_ORGANIZATION_ROLE ( 'creator' ) ;
#208 = PERSON_AND_ORGANIZATION ( #241, #240 ) ;
#209 = CC_DESIGN_APPROVAL ( #227, ( #230 ) ) ;
#210 = CARTESIAN_POINT ( 'NONE',  ( 1.040915400749020900E-015, 1.500000000000000000, -8.500000000000000000 ) ) ;
#211 = DIRECTION ( 'NONE',  ( -0.0000000000000000000, 1.000000000000000000, -0.0000000000000000000 ) ) ;
#212 = VECTOR ( 'NONE', #211, 1000.000000000000000 ) ;
#213 = CARTESIAN_POINT ( 'NONE',  ( 1.040915400749020900E-015, 4.062363853051271800, -8.500000000000000000 ) ) ;
#214 = LINE ( 'NONE', #213, #212 ) ;
#215 =( LENGTH_UNIT ( ) NAMED_UNIT ( * ) SI_UNIT ( .MILLI., .METRE. ) );
#216 = CARTESIAN_POINT ( 'NONE',  ( 0.0000000000000000000, 0.0000000000000000000, 0.0000000000000000000 ) ) ;
#217 = DIRECTION ( 'NONE',  ( 0.0000000000000000000, 0.0000000000000000000, 1.000000000000000000 ) ) ;
#218 = DIRECTION ( 'NONE',  ( -0.0000000000000000000, 1.000000000000000000, -0.0000000000000000000 ) ) ;
#219 = AXIS2_PLACEMENT_3D ( 'NONE', #143, #142, #116 ) ;
#220 = APPROVAL_DATE_TIME ( #221, #227 ) ;
#221 = DATE_AND_TIME ( #222, #223 ) ;
#222 = CALENDAR_DATE ( 2009, 2, 12 ) ;
#223 = LOCAL_TIME ( 10, 7, 44.00000000000000000, #224 ) ;
#224 = COORDINATED_UNIVERSAL_TIME_OFFSET ( 1, 0, .AHEAD. ) ;
#225 = APPROVAL_PERSON_ORGANIZATION ( #229, #227, #226 ) ;
#226 = APPROVAL_ROLE ( '' ) ;
#227 = APPROVAL ( #228, 'UNSPECIFIED' ) ;
#228 = APPROVAL_STATUS ( 'not_yet_approved' ) ;
#229 = PERSON_AND_ORGANIZATION ( #241, #240 ) ;
#230 = PRODUCT_DEFINITION ( 'UNKNOWN', '', #199, #231 ) ;
#231 = DESIGN_CONTEXT ( 'detailed design', #233, 'design' ) ;
#232 = APPLICATION_PROTOCOL_DEFINITION ( 'international standard', 'config_control_design', 1994, #233 ) ;
#233 = APPLICATION_CONTEXT ( 'configuration controlled 3d designs of mechanical parts and assemblies' ) ;
#234 = CC_DESIGN_PERSON_AND_ORGANIZATION_ASSIGNMENT ( #239, #235, ( #242 ) ) ;
#235 = PERSON_AND_ORGANIZATION_ROLE ( 'design_owner' ) ;
#236 = CYLINDRICAL_SURFACE ( 'NONE', #136, 11.00000000000000000 ) ;
#237 = DIRECTION ( 'NONE',  ( 1.000000000000000000, 0.0000000000000000000, 0.0000000000000000000 ) ) ;
#238 =( NAMED_UNIT ( * ) PLANE_ANGLE_UNIT ( ) SI_UNIT ( $, .RADIAN. ) );
#239 = PERSON_AND_ORGANIZATION ( #241, #240 ) ;
#240 = ORGANIZATION ( 'UNSPECIFIED', 'UNSPECIFIED', '' ) ;
#241 = PERSON ( 'UNSPECIFIED', 'UNSPECIFIED', 'UNSPECIFIED', ('UNSPECIFIED'), ('UNSPECIFIED'), ('UNSPECIFIED') ) ;
#242 = PRODUCT ( 'A0200003', 'A0200003', '', ( #243 ) ) ;
#243 = MECHANICAL_CONTEXT ( 'NONE', #249, 'mechanical' ) ;
#244 = APPLICATION_PROTOCOL_DEFINITION ( 'international standard', 'config_control_design', 1994, #249 ) ;
#245 = CIRCLE ( 'NONE', #124, 11.00000000000000000 ) ;
#246 = DIRECTION ( 'NONE',  ( 0.0000000000000000000, 0.0000000000000000000, 1.000000000000000000 ) ) ;
#247 = SHAPE_DEFINITION_REPRESENTATION ( #129, #145 ) ;
#248 = AXIS2_PLACEMENT_3D ( 'NONE', #216, #246, #237 ) ;
#249 = APPLICATION_CONTEXT ( 'configuration controlled 3d designs of mechanical parts and assemblies' ) ;
ENDSEC;
END-ISO-10303-21;
