ISO-10303-21;
HEADER;
FILE_DESCRIPTION (( 'STEP AP203' ),
    '1' );
FILE_NAME ('A0200001.STEP',
    '2009-12-02T09:05:27',
    ( '' ),
    ( 'sopra-pneumatic' ),
    'SwSTEP 2.0',
    'SolidWorks 2009',
    '' );
FILE_SCHEMA (( 'CONFIG_CONTROL_DESIGN' ));
ENDSEC;

DATA;
#1 = ORIENTED_EDGE ( 'NONE', *, *, #19, .T. ) ;
#2 = ORIENTED_EDGE ( 'NONE', *, *, #72, .F. ) ;
#3 = ORIENTED_EDGE ( 'NONE', *, *, #27, .T. ) ;
#4 = EDGE_LOOP ( 'NONE', ( #5, #10, #16, #15 ) ) ;
#5 = ORIENTED_EDGE ( 'NONE', *, *, #30, .F. ) ;
#6 = ORIENTED_EDGE ( 'NONE', *, *, #47, .F. ) ;
#7 = ORIENTED_EDGE ( 'NONE', *, *, #17, .F. ) ;
#8 = ORIENTED_EDGE ( 'NONE', *, *, #41, .T. ) ;
#9 = ADVANCED_FACE ( 'NONE', ( #96 ), #79, .T. ) ;
#10 = ORIENTED_EDGE ( 'NONE', *, *, #17, .T. ) ;
#11 = ADVANCED_FACE ( 'NONE', ( #78, #92 ), #97, .F. ) ;
#12 = ORIENTED_EDGE ( 'NONE', *, *, #57, .T. ) ;
#13 = ORIENTED_EDGE ( 'NONE', *, *, #32, .F. ) ;
#14 = EDGE_LOOP ( 'NONE', ( #8, #12 ) ) ;
#15 = ORIENTED_EDGE ( 'NONE', *, *, #19, .F. ) ;
#16 = ORIENTED_EDGE ( 'NONE', *, *, #23, .T. ) ;
#17 = EDGE_CURVE ( 'NONE', #35, #31, #94, .T. ) ;
#18 = EDGE_LOOP ( 'NONE', ( #13, #7 ) ) ;
#19 = EDGE_CURVE ( 'NONE', #28, #26, #90, .T. ) ;
#20 = EDGE_LOOP ( 'NONE', ( #52, #60, #54, #46 ) ) ;
#21 = CLOSED_SHELL ( 'NONE', ( #36, #24, #45, #74, #9, #11 ) ) ;
#22 = VERTEX_POINT ( 'NONE', #86 ) ;
#23 = EDGE_CURVE ( 'NONE', #31, #26, #51, .T. ) ;
#24 = ADVANCED_FACE ( 'NONE', ( #107 ), #106, .F. ) ;
#25 = ORIENTED_EDGE ( 'NONE', *, *, #23, .F. ) ;
#26 = VERTEX_POINT ( 'NONE', #108 ) ;
#27 = EDGE_CURVE ( 'NONE', #26, #28, #121, .T. ) ;
#28 = VERTEX_POINT ( 'NONE', #122 ) ;
#29 = ORIENTED_EDGE ( 'NONE', *, *, #27, .F. ) ;
#30 = EDGE_CURVE ( 'NONE', #35, #28, #128, .T. ) ;
#31 = VERTEX_POINT ( 'NONE', #124 ) ;
#32 = EDGE_CURVE ( 'NONE', #31, #35, #136, .T. ) ;
#33 = ORIENTED_EDGE ( 'NONE', *, *, #30, .T. ) ;
#34 = MANIFOLD_SOLID_BREP ( 'NONE', #21 ) ;
#35 = VERTEX_POINT ( 'NONE', #132 ) ;
#36 = ADVANCED_FACE ( 'NONE', ( #131 ), #130, .T. ) ;
#37 = ORIENTED_EDGE ( 'NONE', *, *, #32, .T. ) ;
#38 = EDGE_LOOP ( 'NONE', ( #37, #33, #29, #25 ) ) ;
#39 = ORIENTED_EDGE ( 'NONE', *, *, #43, .T. ) ;
#40 = ORIENTED_EDGE ( 'NONE', *, *, #41, .F. ) ;
#41 = EDGE_CURVE ( 'NONE', #49, #22, #113, .T. ) ;
#42 = ORIENTED_EDGE ( 'NONE', *, *, #61, .F. ) ;
#43 = EDGE_CURVE ( 'NONE', #49, #48, #68, .T. ) ;
#44 = EDGE_LOOP ( 'NONE', ( #42, #40, #39, #75 ) ) ;
#45 = ADVANCED_FACE ( 'NONE', ( #151 ), #150, .F. ) ;
#46 = ORIENTED_EDGE ( 'NONE', *, *, #43, .F. ) ;
#47 = EDGE_CURVE ( 'NONE', #58, #48, #147, .T. ) ;
#48 = VERTEX_POINT ( 'NONE', #142 ) ;
#49 = VERTEX_POINT ( 'NONE', #141 ) ;
#50 = CARTESIAN_POINT ( 'NONE',  ( 0.0000000000000000000, 4.062363853051271800, 7.000000000000000900 ) ) ;
#51 = LINE ( 'NONE', #50, #65 ) ;
#52 = ORIENTED_EDGE ( 'NONE', *, *, #57, .F. ) ;
#53 = AXIS2_PLACEMENT_3D ( 'NONE', #63, #62, #59 ) ;
#54 = ORIENTED_EDGE ( 'NONE', *, *, #47, .T. ) ;
#55 = PERSON_AND_ORGANIZATION_ROLE ( 'classification_officer' ) ;
#56 = PERSON_AND_ORGANIZATION ( #187, #186 ) ;
#57 = EDGE_CURVE ( 'NONE', #22, #49, #139, .T. ) ;
#58 = VERTEX_POINT ( 'NONE', #239 ) ;
#59 = DIRECTION ( 'NONE',  ( 0.0000000000000000000, 0.0000000000000000000, 1.000000000000000000 ) ) ;
#60 = ORIENTED_EDGE ( 'NONE', *, *, #61, .T. ) ;
#61 = EDGE_CURVE ( 'NONE', #22, #58, #236, .T. ) ;
#62 = DIRECTION ( 'NONE',  ( -0.0000000000000000000, 1.000000000000000000, -0.0000000000000000000 ) ) ;
#63 = CARTESIAN_POINT ( 'NONE',  ( 0.0000000000000000000, 0.0000000000000000000, 0.0000000000000000000 ) ) ;
#64 = VECTOR ( 'NONE', #66, 1000.000000000000000 ) ;
#65 = VECTOR ( 'NONE', #69, 1000.000000000000000 ) ;
#66 = DIRECTION ( 'NONE',  ( -0.0000000000000000000, 1.000000000000000000, -0.0000000000000000000 ) ) ;
#67 = CARTESIAN_POINT ( 'NONE',  ( 0.0000000000000000000, 4.062363853051271800, 5.100000000000000500 ) ) ;
#68 = LINE ( 'NONE', #67, #64 ) ;
#69 = DIRECTION ( 'NONE',  ( -0.0000000000000000000, 1.000000000000000000, -0.0000000000000000000 ) ) ;
#70 = CC_DESIGN_PERSON_AND_ORGANIZATION_ASSIGNMENT ( #77, #76, ( #223 ) ) ;
#71 = EDGE_LOOP ( 'NONE', ( #3, #1 ) ) ;
#72 = EDGE_CURVE ( 'NONE', #48, #58, #221, .T. ) ;
#73 = EDGE_LOOP ( 'NONE', ( #2, #6 ) ) ;
#74 = ADVANCED_FACE ( 'NONE', ( #213, #241 ), #240, .F. ) ;
#75 = ORIENTED_EDGE ( 'NONE', *, *, #72, .T. ) ;
#76 = PERSON_AND_ORGANIZATION_ROLE ( 'design_supplier' ) ;
#77 = PERSON_AND_ORGANIZATION ( #187, #186 ) ;
#78 = FACE_OUTER_BOUND ( 'NONE', #18, .T. ) ;
#79 = CYLINDRICAL_SURFACE ( 'NONE', #103, 7.000000000000000900 ) ;
#80 = DIRECTION ( 'NONE',  ( -0.0000000000000000000, 1.000000000000000000, -0.0000000000000000000 ) ) ;
#81 = DIRECTION ( 'NONE',  ( 0.0000000000000000000, 0.0000000000000000000, 1.000000000000000000 ) ) ;
#82 = DIRECTION ( 'NONE',  ( -0.0000000000000000000, 1.000000000000000000, -0.0000000000000000000 ) ) ;
#83 = CARTESIAN_POINT ( 'NONE',  ( 0.0000000000000000000, 0.0000000000000000000, 0.0000000000000000000 ) ) ;
#84 = AXIS2_PLACEMENT_3D ( 'NONE', #83, #82, #81 ) ;
#85 = CARTESIAN_POINT ( 'NONE',  ( 0.0000000000000000000, 1.500000000000000000, 0.0000000000000000000 ) ) ;
#86 = CARTESIAN_POINT ( 'NONE',  ( 6.245492404494124800E-016, 0.0000000000000000000, -5.100000000000000500 ) ) ;
#87 = DIRECTION ( 'NONE',  ( 0.0000000000000000000, 0.0000000000000000000, 1.000000000000000000 ) ) ;
#88 = DIRECTION ( 'NONE',  ( -0.0000000000000000000, 1.000000000000000000, -0.0000000000000000000 ) ) ;
#89 = AXIS2_PLACEMENT_3D ( 'NONE', #85, #88, #87 ) ;
#90 = CIRCLE ( 'NONE', #89, 7.000000000000000900 ) ;
#91 = AXIS2_PLACEMENT_3D ( 'NONE', #99, #98, #100 ) ;
#92 = FACE_BOUND ( 'NONE', #14, .T. ) ;
#93 = CARTESIAN_POINT ( 'NONE',  ( 0.0000000000000000000, 4.062363853051271800, 0.0000000000000000000 ) ) ;
#94 = CIRCLE ( 'NONE', #84, 7.000000000000000900 ) ;
#95 = DIRECTION ( 'NONE',  ( 0.0000000000000000000, 0.0000000000000000000, 1.000000000000000000 ) ) ;
#96 = FACE_OUTER_BOUND ( 'NONE', #4, .T. ) ;
#97 = PLANE ( 'NONE',  #91 ) ;
#98 = DIRECTION ( 'NONE',  ( -0.0000000000000000000, 1.000000000000000000, 0.0000000000000000000 ) ) ;
#99 = CARTESIAN_POINT ( 'NONE',  ( 5.100000000000000500, 0.0000000000000000000, 0.0000000000000000000 ) ) ;
#100 = DIRECTION ( 'NONE',  ( 0.0000000000000000000, 0.0000000000000000000, 1.000000000000000000 ) ) ;
#101 = SECURITY_CLASSIFICATION ( '', '', #102 ) ;
#102 = SECURITY_CLASSIFICATION_LEVEL ( 'unclassified' ) ;
#103 = AXIS2_PLACEMENT_3D ( 'NONE', #93, #80, #95 ) ;
#104 = DIRECTION ( 'NONE',  ( 0.0000000000000000000, 0.0000000000000000000, 1.000000000000000000 ) ) ;
#105 = DIRECTION ( 'NONE',  ( -0.0000000000000000000, 1.000000000000000000, -0.0000000000000000000 ) ) ;
#106 = CYLINDRICAL_SURFACE ( 'NONE', #138, 5.100000000000000500 ) ;
#107 = FACE_OUTER_BOUND ( 'NONE', #20, .T. ) ;
#108 = CARTESIAN_POINT ( 'NONE',  ( 0.0000000000000000000, 1.500000000000000000, 7.000000000000000900 ) ) ;
#109 = DIRECTION ( 'NONE',  ( 0.0000000000000000000, 0.0000000000000000000, 1.000000000000000000 ) ) ;
#110 = DIRECTION ( 'NONE',  ( -0.0000000000000000000, 1.000000000000000000, -0.0000000000000000000 ) ) ;
#111 = CARTESIAN_POINT ( 'NONE',  ( 0.0000000000000000000, 0.0000000000000000000, 0.0000000000000000000 ) ) ;
#112 = AXIS2_PLACEMENT_3D ( 'NONE', #111, #110, #109 ) ;
#113 = CIRCLE ( 'NONE', #112, 5.100000000000000500 ) ;
#114 = DIRECTION ( 'NONE',  ( 0.0000000000000000000, 0.0000000000000000000, 1.000000000000000000 ) ) ;
#115 = DIRECTION ( 'NONE',  ( -0.0000000000000000000, 1.000000000000000000, -0.0000000000000000000 ) ) ;
#116 = CARTESIAN_POINT ( 'NONE',  ( 0.0000000000000000000, 4.062363853051271800, 0.0000000000000000000 ) ) ;
#117 = DIRECTION ( 'NONE',  ( 0.0000000000000000000, 0.0000000000000000000, 1.000000000000000000 ) ) ;
#118 = DIRECTION ( 'NONE',  ( -0.0000000000000000000, 1.000000000000000000, -0.0000000000000000000 ) ) ;
#119 = CARTESIAN_POINT ( 'NONE',  ( 0.0000000000000000000, 1.500000000000000000, 0.0000000000000000000 ) ) ;
#120 = AXIS2_PLACEMENT_3D ( 'NONE', #119, #118, #117 ) ;
#121 = CIRCLE ( 'NONE', #120, 7.000000000000000900 ) ;
#122 = CARTESIAN_POINT ( 'NONE',  ( 8.572244476756641800E-016, 1.500000000000000000, -7.000000000000000900 ) ) ;
#123 = CARTESIAN_POINT ( 'NONE',  ( 0.0000000000000000000, 0.0000000000000000000, 0.0000000000000000000 ) ) ;
#124 = CARTESIAN_POINT ( 'NONE',  ( 0.0000000000000000000, 0.0000000000000000000, 7.000000000000000900 ) ) ;
#125 = DIRECTION ( 'NONE',  ( -0.0000000000000000000, 1.000000000000000000, -0.0000000000000000000 ) ) ;
#126 = VECTOR ( 'NONE', #125, 1000.000000000000000 ) ;
#127 = CARTESIAN_POINT ( 'NONE',  ( 8.572244476756641800E-016, 4.062363853051271800, -7.000000000000000900 ) ) ;
#128 = LINE ( 'NONE', #127, #126 ) ;
#129 = AXIS2_PLACEMENT_3D ( 'NONE', #116, #115, #114 ) ;
#130 = CYLINDRICAL_SURFACE ( 'NONE', #129, 7.000000000000000900 ) ;
#131 = FACE_OUTER_BOUND ( 'NONE', #38, .T. ) ;
#132 = CARTESIAN_POINT ( 'NONE',  ( 8.572244476756641800E-016, 0.0000000000000000000, -7.000000000000000900 ) ) ;
#133 = DIRECTION ( 'NONE',  ( 0.0000000000000000000, 0.0000000000000000000, 1.000000000000000000 ) ) ;
#134 = DIRECTION ( 'NONE',  ( -0.0000000000000000000, 1.000000000000000000, -0.0000000000000000000 ) ) ;
#135 = AXIS2_PLACEMENT_3D ( 'NONE', #123, #134, #133 ) ;
#136 = CIRCLE ( 'NONE', #135, 7.000000000000000900 ) ;
#137 = CARTESIAN_POINT ( 'NONE',  ( 0.0000000000000000000, 4.062363853051271800, 0.0000000000000000000 ) ) ;
#138 = AXIS2_PLACEMENT_3D ( 'NONE', #137, #105, #104 ) ;
#139 = CIRCLE ( 'NONE', #53, 5.100000000000000500 ) ;
#140 = CC_DESIGN_PERSON_AND_ORGANIZATION_ASSIGNMENT ( #56, #55, ( #101 ) ) ;
#141 = CARTESIAN_POINT ( 'NONE',  ( 0.0000000000000000000, 0.0000000000000000000, 5.100000000000000500 ) ) ;
#142 = CARTESIAN_POINT ( 'NONE',  ( 0.0000000000000000000, 1.500000000000000000, 5.100000000000000500 ) ) ;
#143 = DIRECTION ( 'NONE',  ( 0.0000000000000000000, 0.0000000000000000000, 1.000000000000000000 ) ) ;
#144 = DIRECTION ( 'NONE',  ( -0.0000000000000000000, 1.000000000000000000, -0.0000000000000000000 ) ) ;
#145 = CARTESIAN_POINT ( 'NONE',  ( 0.0000000000000000000, 1.500000000000000000, 0.0000000000000000000 ) ) ;
#146 = AXIS2_PLACEMENT_3D ( 'NONE', #145, #144, #143 ) ;
#147 = CIRCLE ( 'NONE', #146, 5.100000000000000500 ) ;
#148 = DIRECTION ( 'NONE',  ( 0.0000000000000000000, 0.0000000000000000000, 1.000000000000000000 ) ) ;
#149 = DIRECTION ( 'NONE',  ( -0.0000000000000000000, 1.000000000000000000, -0.0000000000000000000 ) ) ;
#150 = CYLINDRICAL_SURFACE ( 'NONE', #152, 5.100000000000000500 ) ;
#151 = FACE_OUTER_BOUND ( 'NONE', #44, .T. ) ;
#152 = AXIS2_PLACEMENT_3D ( 'NONE', #153, #149, #148 ) ;
#153 = CARTESIAN_POINT ( 'NONE',  ( 0.0000000000000000000, 4.062363853051271800, 0.0000000000000000000 ) ) ;
#154 = APPROVAL ( #155, 'UNSPECIFIED' ) ;
#155 = APPROVAL_STATUS ( 'not_yet_approved' ) ;
#156 = CC_DESIGN_DATE_AND_TIME_ASSIGNMENT ( #166, #161, ( #101 ) ) ;
#157 = CALENDAR_DATE ( 2009, 2, 12 ) ;
#158 = DATE_AND_TIME ( #159, #160 ) ;
#159 = CALENDAR_DATE ( 2009, 2, 12 ) ;
#160 = LOCAL_TIME ( 10, 5, 27.00000000000000000, #162 ) ;
#161 = DATE_TIME_ROLE ( 'classification_date' ) ;
#162 = COORDINATED_UNIVERSAL_TIME_OFFSET ( 1, 0, .AHEAD. ) ;
#163 = APPROVAL_PERSON_ORGANIZATION ( #165, #154, #164 ) ;
#164 = APPROVAL_ROLE ( '' ) ;
#165 = PERSON_AND_ORGANIZATION ( #187, #186 ) ;
#166 = DATE_AND_TIME ( #157, #167 ) ;
#167 = LOCAL_TIME ( 10, 5, 27.00000000000000000, #168 ) ;
#168 = COORDINATED_UNIVERSAL_TIME_OFFSET ( 1, 0, .AHEAD. ) ;
#169 = CC_DESIGN_APPROVAL ( #154, ( #101 ) ) ;
#170 = APPROVAL_DATE_TIME ( #158, #154 ) ;
#171 = DATE_AND_TIME ( #235, #172 ) ;
#172 = LOCAL_TIME ( 10, 5, 27.00000000000000000, #173 ) ;
#173 = COORDINATED_UNIVERSAL_TIME_OFFSET ( 1, 0, .AHEAD. ) ;
#174 = APPROVAL_PERSON_ORGANIZATION ( #178, #176, #175 ) ;
#175 = APPROVAL_ROLE ( '' ) ;
#176 = APPROVAL ( #177, 'UNSPECIFIED' ) ;
#177 = APPROVAL_STATUS ( 'not_yet_approved' ) ;
#178 = PERSON_AND_ORGANIZATION ( #187, #186 ) ;
#179 = PRODUCT_DEFINITION ( 'UNKNOWN', '', #223, #180 ) ;
#180 = DESIGN_CONTEXT ( 'detailed design', #182, 'design' ) ;
#181 = APPLICATION_PROTOCOL_DEFINITION ( 'international standard', 'config_control_design', 1994, #182 ) ;
#182 = APPLICATION_CONTEXT ( 'configuration controlled 3d designs of mechanical parts and assemblies' ) ;
#183 = CC_DESIGN_PERSON_AND_ORGANIZATION_ASSIGNMENT ( #185, #184, ( #188 ) ) ;
#184 = PERSON_AND_ORGANIZATION_ROLE ( 'design_owner' ) ;
#185 = PERSON_AND_ORGANIZATION ( #187, #186 ) ;
#186 = ORGANIZATION ( 'UNSPECIFIED', 'UNSPECIFIED', '' ) ;
#187 = PERSON ( 'UNSPECIFIED', 'UNSPECIFIED', 'UNSPECIFIED', ('UNSPECIFIED'), ('UNSPECIFIED'), ('UNSPECIFIED') ) ;
#188 = PRODUCT ( 'A0200001', 'A0200001', '', ( #189 ) ) ;
#189 = MECHANICAL_CONTEXT ( 'NONE', #212, 'mechanical' ) ;
#190 = APPLICATION_PROTOCOL_DEFINITION ( 'international standard', 'config_control_design', 1994, #212 ) ;
#191 = CARTESIAN_POINT ( 'NONE',  ( 0.0000000000000000000, 1.500000000000000000, 0.0000000000000000000 ) ) ;
#192 = AXIS2_PLACEMENT_3D ( 'NONE', #191, #217, #216 ) ;
#193 = DIRECTION ( 'NONE',  ( 0.0000000000000000000, 0.0000000000000000000, 1.000000000000000000 ) ) ;
#194 = CARTESIAN_POINT ( 'NONE',  ( 0.0000000000000000000, 0.0000000000000000000, 0.0000000000000000000 ) ) ;
#195 = CC_DESIGN_PERSON_AND_ORGANIZATION_ASSIGNMENT ( #197, #196, ( #223 ) ) ;
#196 = PERSON_AND_ORGANIZATION_ROLE ( 'creator' ) ;
#197 = PERSON_AND_ORGANIZATION ( #187, #186 ) ;
#198 = CC_DESIGN_APPROVAL ( #206, ( #223 ) ) ;
#199 = APPROVAL_DATE_TIME ( #200, #206 ) ;
#200 = DATE_AND_TIME ( #201, #202 ) ;
#201 = CALENDAR_DATE ( 2009, 2, 12 ) ;
#202 = LOCAL_TIME ( 10, 5, 27.00000000000000000, #203 ) ;
#203 = COORDINATED_UNIVERSAL_TIME_OFFSET ( 1, 0, .AHEAD. ) ;
#204 = APPROVAL_PERSON_ORGANIZATION ( #208, #206, #205 ) ;
#205 = APPROVAL_ROLE ( '' ) ;
#206 = APPROVAL ( #207, 'UNSPECIFIED' ) ;
#207 = APPROVAL_STATUS ( 'not_yet_approved' ) ;
#208 = PERSON_AND_ORGANIZATION ( #187, #186 ) ;
#209 = DIRECTION ( 'NONE',  ( 0.0000000000000000000, -1.000000000000000000, 0.0000000000000000000 ) ) ;
#210 = CARTESIAN_POINT ( 'NONE',  ( 5.100000000000000500, 1.500000000000000000, 0.0000000000000000000 ) ) ;
#211 = AXIS2_PLACEMENT_3D ( 'NONE', #210, #209, #220 ) ;
#212 = APPLICATION_CONTEXT ( 'configuration controlled 3d designs of mechanical parts and assemblies' ) ;
#213 = FACE_BOUND ( 'NONE', #73, .T. ) ;
#214 = VECTOR ( 'NONE', #218, 1000.000000000000000 ) ;
#215 = ADVANCED_BREP_SHAPE_REPRESENTATION ( 'A0200001', ( #34, #219 ), #242 ) ;
#216 = DIRECTION ( 'NONE',  ( 0.0000000000000000000, 0.0000000000000000000, 1.000000000000000000 ) ) ;
#217 = DIRECTION ( 'NONE',  ( -0.0000000000000000000, 1.000000000000000000, -0.0000000000000000000 ) ) ;
#218 = DIRECTION ( 'NONE',  ( -0.0000000000000000000, 1.000000000000000000, -0.0000000000000000000 ) ) ;
#219 = AXIS2_PLACEMENT_3D ( 'NONE', #194, #193, #243 ) ;
#220 = DIRECTION ( 'NONE',  ( 0.0000000000000000000, -0.0000000000000000000, -1.000000000000000000 ) ) ;
#221 = CIRCLE ( 'NONE', #192, 5.100000000000000500 ) ;
#222 =( NAMED_UNIT ( * ) PLANE_ANGLE_UNIT ( ) SI_UNIT ( $, .RADIAN. ) );
#223 = PRODUCT_DEFINITION_FORMATION_WITH_SPECIFIED_SOURCE ( 'ANY', '', #188, .NOT_KNOWN. ) ;
#224 = CC_DESIGN_DATE_AND_TIME_ASSIGNMENT ( #226, #225, ( #179 ) ) ;
#225 = DATE_TIME_ROLE ( 'creation_date' ) ;
#226 = DATE_AND_TIME ( #227, #228 ) ;
#227 = CALENDAR_DATE ( 2009, 2, 12 ) ;
#228 = LOCAL_TIME ( 10, 5, 27.00000000000000000, #229 ) ;
#229 = COORDINATED_UNIVERSAL_TIME_OFFSET ( 1, 0, .AHEAD. ) ;
#230 = CC_DESIGN_PERSON_AND_ORGANIZATION_ASSIGNMENT ( #232, #231, ( #179 ) ) ;
#231 = PERSON_AND_ORGANIZATION_ROLE ( 'creator' ) ;
#232 = PERSON_AND_ORGANIZATION ( #187, #186 ) ;
#233 = CC_DESIGN_APPROVAL ( #176, ( #179 ) ) ;
#234 = APPROVAL_DATE_TIME ( #171, #176 ) ;
#235 = CALENDAR_DATE ( 2009, 2, 12 ) ;
#236 = LINE ( 'NONE', #238, #214 ) ;
#237 =( LENGTH_UNIT ( ) NAMED_UNIT ( * ) SI_UNIT ( .MILLI., .METRE. ) );
#238 = CARTESIAN_POINT ( 'NONE',  ( 6.245492404494124800E-016, 4.062363853051271800, -5.100000000000000500 ) ) ;
#239 = CARTESIAN_POINT ( 'NONE',  ( 6.245492404494124800E-016, 1.500000000000000000, -5.100000000000000500 ) ) ;
#240 = PLANE ( 'NONE',  #211 ) ;
#241 = FACE_OUTER_BOUND ( 'NONE', #71, .T. ) ;
#242 =( GEOMETRIC_REPRESENTATION_CONTEXT ( 3 ) GLOBAL_UNCERTAINTY_ASSIGNED_CONTEXT ( ( #244 ) ) GLOBAL_UNIT_ASSIGNED_CONTEXT ( ( #237, #222, #245 ) ) REPRESENTATION_CONTEXT ( 'NONE', 'WORKASPACE' ) );
#243 = DIRECTION ( 'NONE',  ( 1.000000000000000000, 0.0000000000000000000, 0.0000000000000000000 ) ) ;
#244 = UNCERTAINTY_MEASURE_WITH_UNIT (LENGTH_MEASURE( 1.000000000000000100E-005 ), #237, 'distance_accuracy_value', 'NONE');
#245 =( NAMED_UNIT ( * ) SI_UNIT ( $, .STERADIAN. ) SOLID_ANGLE_UNIT ( ) );
#246 = PRODUCT_RELATED_PRODUCT_CATEGORY ( 'detail', '', ( #188 ) ) ;
#247 = SHAPE_DEFINITION_REPRESENTATION ( #248, #215 ) ;
#248 = PRODUCT_DEFINITION_SHAPE ( 'NONE', 'NONE',  #179 ) ;
#249 = CC_DESIGN_SECURITY_CLASSIFICATION ( #101, ( #223 ) ) ;
ENDSEC;
END-ISO-10303-21;
