ISO-10303-21;
HEADER;
FILE_DESCRIPTION (( 'STEP AP203' ),
    '1' );
FILE_NAME ('A0200002.STEP',
    '2009-12-02T09:06:33',
    ( '' ),
    ( 'sopra-pneumatic' ),
    'SwSTEP 2.0',
    'SolidWorks 2009',
    '' );
FILE_SCHEMA (( 'CONFIG_CONTROL_DESIGN' ));
ENDSEC;

DATA;
#1 = CARTESIAN_POINT ( 'NONE',  ( 0.0000000000000000000, 0.0000000000000000000, 0.0000000000000000000 ) ) ;
#2 = CIRCLE ( 'NONE', #14, 9.000000000000000000 ) ;
#3 = DIRECTION ( 'NONE',  ( 0.0000000000000000000, 0.0000000000000000000, 1.000000000000000000 ) ) ;
#4 = DIRECTION ( 'NONE',  ( -0.0000000000000000000, 1.000000000000000000, -0.0000000000000000000 ) ) ;
#5 = DIRECTION ( 'NONE',  ( -0.0000000000000000000, 1.000000000000000000, -0.0000000000000000000 ) ) ;
#6 = DIRECTION ( 'NONE',  ( 0.0000000000000000000, 0.0000000000000000000, 1.000000000000000000 ) ) ;
#7 = CARTESIAN_POINT ( 'NONE',  ( 0.0000000000000000000, 0.0000000000000000000, 6.750000000000000900 ) ) ;
#8 = CARTESIAN_POINT ( 'NONE',  ( 8.266092888301047500E-016, 0.0000000000000000000, -6.750000000000000900 ) ) ;
#9 = CARTESIAN_POINT ( 'NONE',  ( 0.0000000000000000000, 0.0000000000000000000, 0.0000000000000000000 ) ) ;
#10 = CIRCLE ( 'NONE', #11, 6.750000000000000900 ) ;
#11 = AXIS2_PLACEMENT_3D ( 'NONE', #9, #5, #6 ) ;
#12 = CARTESIAN_POINT ( 'NONE',  ( 0.0000000000000000000, 0.0000000000000000000, 0.0000000000000000000 ) ) ;
#13 = DIRECTION ( 'NONE',  ( -0.0000000000000000000, 1.000000000000000000, -0.0000000000000000000 ) ) ;
#14 = AXIS2_PLACEMENT_3D ( 'NONE', #12, #13, #15 ) ;
#15 = DIRECTION ( 'NONE',  ( 0.0000000000000000000, 0.0000000000000000000, 1.000000000000000000 ) ) ;
#16 = FACE_BOUND ( 'NONE', #185, .T. ) ;
#17 = FACE_OUTER_BOUND ( 'NONE', #182, .T. ) ;
#18 = CARTESIAN_POINT ( 'NONE',  ( 0.0000000000000000000, 4.062363853051271800, 0.0000000000000000000 ) ) ;
#19 = AXIS2_PLACEMENT_3D ( 'NONE', #18, #47, #60 ) ;
#20 = FACE_OUTER_BOUND ( 'NONE', #177, .T. ) ;
#21 = DIRECTION ( 'NONE',  ( 0.0000000000000000000, 0.0000000000000000000, 1.000000000000000000 ) ) ;
#22 = PLANE ( 'NONE',  #70 ) ;
#23 = CARTESIAN_POINT ( 'NONE',  ( 0.0000000000000000000, 4.062363853051271800, 0.0000000000000000000 ) ) ;
#24 = CYLINDRICAL_SURFACE ( 'NONE', #28, 9.000000000000000000 ) ;
#25 = DIRECTION ( 'NONE',  ( 0.0000000000000000000, 0.0000000000000000000, 1.000000000000000000 ) ) ;
#26 = CIRCLE ( 'NONE', #39, 6.750000000000000900 ) ;
#27 = DIRECTION ( 'NONE',  ( 0.0000000000000000000, 0.0000000000000000000, 1.000000000000000000 ) ) ;
#28 = AXIS2_PLACEMENT_3D ( 'NONE', #23, #55, #27 ) ;
#29 = DIRECTION ( 'NONE',  ( -0.0000000000000000000, 1.000000000000000000, -0.0000000000000000000 ) ) ;
#30 = VECTOR ( 'NONE', #29, 1000.000000000000000 ) ;
#31 = CARTESIAN_POINT ( 'NONE',  ( 1.102145718440139500E-015, 4.062363853051271800, -9.000000000000000000 ) ) ;
#32 = LINE ( 'NONE', #31, #30 ) ;
#33 = CARTESIAN_POINT ( 'NONE',  ( 1.102145718440139500E-015, 1.500000000000000000, -9.000000000000000000 ) ) ;
#34 = CARTESIAN_POINT ( 'NONE',  ( 0.0000000000000000000, 0.0000000000000000000, 9.000000000000000000 ) ) ;
#35 = CARTESIAN_POINT ( 'NONE',  ( 0.0000000000000000000, 1.500000000000000000, 6.750000000000000900 ) ) ;
#36 = DIRECTION ( 'NONE',  ( 0.0000000000000000000, 0.0000000000000000000, 1.000000000000000000 ) ) ;
#37 = DIRECTION ( 'NONE',  ( -0.0000000000000000000, 1.000000000000000000, -0.0000000000000000000 ) ) ;
#38 = CARTESIAN_POINT ( 'NONE',  ( 0.0000000000000000000, 1.500000000000000000, 0.0000000000000000000 ) ) ;
#39 = AXIS2_PLACEMENT_3D ( 'NONE', #38, #37, #36 ) ;
#40 = CARTESIAN_POINT ( 'NONE',  ( 0.0000000000000000000, 1.500000000000000000, 0.0000000000000000000 ) ) ;
#41 = CARTESIAN_POINT ( 'NONE',  ( 8.266092888301047500E-016, 1.500000000000000000, -6.750000000000000900 ) ) ;
#42 = DIRECTION ( 'NONE',  ( 0.0000000000000000000, -0.0000000000000000000, -1.000000000000000000 ) ) ;
#43 = PLANE ( 'NONE',  #62 ) ;
#44 = CARTESIAN_POINT ( 'NONE',  ( 0.0000000000000000000, 1.500000000000000000, 9.000000000000000000 ) ) ;
#45 = CARTESIAN_POINT ( 'NONE',  ( 8.266092888301047500E-016, 4.062363853051271800, -6.750000000000000900 ) ) ;
#46 = LINE ( 'NONE', #45, #54 ) ;
#47 = DIRECTION ( 'NONE',  ( -0.0000000000000000000, 1.000000000000000000, -0.0000000000000000000 ) ) ;
#48 = CYLINDRICAL_SURFACE ( 'NONE', #19, 9.000000000000000000 ) ;
#49 = DIRECTION ( 'NONE',  ( -0.0000000000000000000, 1.000000000000000000, 0.0000000000000000000 ) ) ;
#50 = DIRECTION ( 'NONE',  ( 0.0000000000000000000, 0.0000000000000000000, 1.000000000000000000 ) ) ;
#51 = LINE ( 'NONE', #72, #71 ) ;
#52 = DIRECTION ( 'NONE',  ( 0.0000000000000000000, -1.000000000000000000, 0.0000000000000000000 ) ) ;
#53 = DIRECTION ( 'NONE',  ( -0.0000000000000000000, 1.000000000000000000, -0.0000000000000000000 ) ) ;
#54 = VECTOR ( 'NONE', #53, 1000.000000000000000 ) ;
#55 = DIRECTION ( 'NONE',  ( -0.0000000000000000000, 1.000000000000000000, -0.0000000000000000000 ) ) ;
#56 = CARTESIAN_POINT ( 'NONE',  ( 6.750000000000000900, 0.0000000000000000000, 0.0000000000000000000 ) ) ;
#57 = DIRECTION ( 'NONE',  ( -0.0000000000000000000, 1.000000000000000000, -0.0000000000000000000 ) ) ;
#58 = AXIS2_PLACEMENT_3D ( 'NONE', #1, #4, #3 ) ;
#59 = CIRCLE ( 'NONE', #58, 9.000000000000000000 ) ;
#60 = DIRECTION ( 'NONE',  ( 0.0000000000000000000, 0.0000000000000000000, 1.000000000000000000 ) ) ;
#61 = DIRECTION ( 'NONE',  ( -0.0000000000000000000, 1.000000000000000000, -0.0000000000000000000 ) ) ;
#62 = AXIS2_PLACEMENT_3D ( 'NONE', #74, #52, #42 ) ;
#63 = DIRECTION ( 'NONE',  ( -0.0000000000000000000, 1.000000000000000000, -0.0000000000000000000 ) ) ;
#64 = CARTESIAN_POINT ( 'NONE',  ( 0.0000000000000000000, 1.500000000000000000, 0.0000000000000000000 ) ) ;
#65 = AXIS2_PLACEMENT_3D ( 'NONE', #64, #63, #25 ) ;
#66 = CIRCLE ( 'NONE', #65, 9.000000000000000000 ) ;
#67 = FACE_OUTER_BOUND ( 'NONE', #212, .T. ) ;
#68 = FACE_BOUND ( 'NONE', #204, .T. ) ;
#69 = AXIS2_PLACEMENT_3D ( 'NONE', #40, #61, #50 ) ;
#70 = AXIS2_PLACEMENT_3D ( 'NONE', #56, #49, #21 ) ;
#71 = VECTOR ( 'NONE', #57, 1000.000000000000000 ) ;
#72 = CARTESIAN_POINT ( 'NONE',  ( 0.0000000000000000000, 4.062363853051271800, 9.000000000000000000 ) ) ;
#73 = CIRCLE ( 'NONE', #69, 9.000000000000000000 ) ;
#74 = CARTESIAN_POINT ( 'NONE',  ( 6.750000000000000900, 1.500000000000000000, 0.0000000000000000000 ) ) ;
#75 = FACE_OUTER_BOUND ( 'NONE', #207, .T. ) ;
#76 = AXIS2_PLACEMENT_3D ( 'NONE', #80, #79, #78 ) ;
#77 = CARTESIAN_POINT ( 'NONE',  ( 1.102145718440139500E-015, 0.0000000000000000000, -9.000000000000000000 ) ) ;
#78 = DIRECTION ( 'NONE',  ( 0.0000000000000000000, 0.0000000000000000000, 1.000000000000000000 ) ) ;
#79 = DIRECTION ( 'NONE',  ( -0.0000000000000000000, 1.000000000000000000, -0.0000000000000000000 ) ) ;
#80 = CARTESIAN_POINT ( 'NONE',  ( 0.0000000000000000000, 4.062363853051271800, 0.0000000000000000000 ) ) ;
#81 = DIRECTION ( 'NONE',  ( -0.0000000000000000000, 1.000000000000000000, -0.0000000000000000000 ) ) ;
#82 = VECTOR ( 'NONE', #81, 1000.000000000000000 ) ;
#83 =( NAMED_UNIT ( * ) PLANE_ANGLE_UNIT ( ) SI_UNIT ( $, .RADIAN. ) );
#84 = FACE_OUTER_BOUND ( 'NONE', #191, .T. ) ;
#85 = DIRECTION ( 'NONE',  ( 0.0000000000000000000, 0.0000000000000000000, 1.000000000000000000 ) ) ;
#86 = DIRECTION ( 'NONE',  ( -0.0000000000000000000, 1.000000000000000000, -0.0000000000000000000 ) ) ;
#87 = MECHANICAL_CONTEXT ( 'NONE', #111, 'mechanical' ) ;
#88 = ADVANCED_BREP_SHAPE_REPRESENTATION ( 'A0200002', ( #176, #113 ), #89 ) ;
#89 =( GEOMETRIC_REPRESENTATION_CONTEXT ( 3 ) GLOBAL_UNCERTAINTY_ASSIGNED_CONTEXT ( ( #101 ) ) GLOBAL_UNIT_ASSIGNED_CONTEXT ( ( #95, #83, #102 ) ) REPRESENTATION_CONTEXT ( 'NONE', 'WORKASPACE' ) );
#90 = CYLINDRICAL_SURFACE ( 'NONE', #106, 6.750000000000000900 ) ;
#91 = CARTESIAN_POINT ( 'NONE',  ( 0.0000000000000000000, 4.062363853051271800, 6.750000000000000900 ) ) ;
#92 = CARTESIAN_POINT ( 'NONE',  ( 0.0000000000000000000, 0.0000000000000000000, 0.0000000000000000000 ) ) ;
#93 = AXIS2_PLACEMENT_3D ( 'NONE', #92, #86, #85 ) ;
#94 = DIRECTION ( 'NONE',  ( 0.0000000000000000000, 0.0000000000000000000, 1.000000000000000000 ) ) ;
#95 =( LENGTH_UNIT ( ) NAMED_UNIT ( * ) SI_UNIT ( .MILLI., .METRE. ) );
#96 = CIRCLE ( 'NONE', #93, 6.750000000000000900 ) ;
#97 = DIRECTION ( 'NONE',  ( 0.0000000000000000000, 0.0000000000000000000, 1.000000000000000000 ) ) ;
#98 = DIRECTION ( 'NONE',  ( -0.0000000000000000000, 1.000000000000000000, -0.0000000000000000000 ) ) ;
#99 = CARTESIAN_POINT ( 'NONE',  ( 0.0000000000000000000, 1.500000000000000000, 0.0000000000000000000 ) ) ;
#100 = AXIS2_PLACEMENT_3D ( 'NONE', #99, #98, #97 ) ;
#101 = UNCERTAINTY_MEASURE_WITH_UNIT (LENGTH_MEASURE( 1.000000000000000100E-005 ), #95, 'distance_accuracy_value', 'NONE');
#102 =( NAMED_UNIT ( * ) SI_UNIT ( $, .STERADIAN. ) SOLID_ANGLE_UNIT ( ) );
#103 = CARTESIAN_POINT ( 'NONE',  ( 0.0000000000000000000, 4.062363853051271800, 0.0000000000000000000 ) ) ;
#104 = CYLINDRICAL_SURFACE ( 'NONE', #76, 6.750000000000000900 ) ;
#105 = FACE_OUTER_BOUND ( 'NONE', #227, .T. ) ;
#106 = AXIS2_PLACEMENT_3D ( 'NONE', #103, #107, #94 ) ;
#107 = DIRECTION ( 'NONE',  ( -0.0000000000000000000, 1.000000000000000000, -0.0000000000000000000 ) ) ;
#108 = LINE ( 'NONE', #91, #82 ) ;
#109 = CIRCLE ( 'NONE', #100, 6.750000000000000900 ) ;
#110 = APPLICATION_PROTOCOL_DEFINITION ( 'international standard', 'config_control_design', 1994, #111 ) ;
#111 = APPLICATION_CONTEXT ( 'configuration controlled 3d designs of mechanical parts and assemblies' ) ;
#112 = DIRECTION ( 'NONE',  ( 1.000000000000000000, 0.0000000000000000000, 0.0000000000000000000 ) ) ;
#113 = AXIS2_PLACEMENT_3D ( 'NONE', #114, #117, #112 ) ;
#114 = CARTESIAN_POINT ( 'NONE',  ( 0.0000000000000000000, 0.0000000000000000000, 0.0000000000000000000 ) ) ;
#115 = PRODUCT ( 'A0200002', 'A0200002', '', ( #87 ) ) ;
#116 = PERSON ( 'UNSPECIFIED', 'UNSPECIFIED', 'UNSPECIFIED', ('UNSPECIFIED'), ('UNSPECIFIED'), ('UNSPECIFIED') ) ;
#117 = DIRECTION ( 'NONE',  ( 0.0000000000000000000, 0.0000000000000000000, 1.000000000000000000 ) ) ;
#118 = APPROVAL_STATUS ( 'not_yet_approved' ) ;
#119 = PERSON_AND_ORGANIZATION ( #116, #151 ) ;
#120 = PRODUCT_DEFINITION ( 'UNKNOWN', '', #162, #121 ) ;
#121 = DESIGN_CONTEXT ( 'detailed design', #149, 'design' ) ;
#122 = COORDINATED_UNIVERSAL_TIME_OFFSET ( 1, 0, .AHEAD. ) ;
#123 = APPROVAL_PERSON_ORGANIZATION ( #119, #125, #124 ) ;
#124 = APPROVAL_ROLE ( '' ) ;
#125 = APPROVAL ( #118, 'UNSPECIFIED' ) ;
#126 = CC_DESIGN_PERSON_AND_ORGANIZATION_ASSIGNMENT ( #128, #127, ( #120 ) ) ;
#127 = PERSON_AND_ORGANIZATION_ROLE ( 'creator' ) ;
#128 = PERSON_AND_ORGANIZATION ( #116, #151 ) ;
#129 = PERSON_AND_ORGANIZATION ( #116, #151 ) ;
#130 = CC_DESIGN_APPROVAL ( #159, ( #162 ) ) ;
#131 = APPROVAL_DATE_TIME ( #132, #159 ) ;
#132 = DATE_AND_TIME ( #133, #134 ) ;
#133 = CALENDAR_DATE ( 2009, 2, 12 ) ;
#134 = LOCAL_TIME ( 10, 6, 33.00000000000000000, #135 ) ;
#135 = COORDINATED_UNIVERSAL_TIME_OFFSET ( 1, 0, .AHEAD. ) ;
#136 = APPROVAL_PERSON_ORGANIZATION ( #161, #159, #137 ) ;
#137 = APPROVAL_ROLE ( '' ) ;
#138 = CC_DESIGN_APPROVAL ( #125, ( #120 ) ) ;
#139 = APPROVAL_DATE_TIME ( #140, #125 ) ;
#140 = DATE_AND_TIME ( #141, #142 ) ;
#141 = CALENDAR_DATE ( 2009, 2, 12 ) ;
#142 = LOCAL_TIME ( 10, 6, 33.00000000000000000, #122 ) ;
#143 = CC_DESIGN_PERSON_AND_ORGANIZATION_ASSIGNMENT ( #145, #144, ( #162 ) ) ;
#144 = PERSON_AND_ORGANIZATION_ROLE ( 'design_supplier' ) ;
#145 = PERSON_AND_ORGANIZATION ( #116, #151 ) ;
#146 = CC_DESIGN_PERSON_AND_ORGANIZATION_ASSIGNMENT ( #129, #147, ( #162 ) ) ;
#147 = PERSON_AND_ORGANIZATION_ROLE ( 'creator' ) ;
#148 = APPLICATION_PROTOCOL_DEFINITION ( 'international standard', 'config_control_design', 1994, #149 ) ;
#149 = APPLICATION_CONTEXT ( 'configuration controlled 3d designs of mechanical parts and assemblies' ) ;
#150 = PERSON_AND_ORGANIZATION_ROLE ( 'design_owner' ) ;
#151 = ORGANIZATION ( 'UNSPECIFIED', 'UNSPECIFIED', '' ) ;
#152 = CC_DESIGN_PERSON_AND_ORGANIZATION_ASSIGNMENT ( #158, #150, ( #115 ) ) ;
#153 = DATE_TIME_ROLE ( 'creation_date' ) ;
#154 = DATE_AND_TIME ( #155, #156 ) ;
#155 = CALENDAR_DATE ( 2009, 2, 12 ) ;
#156 = LOCAL_TIME ( 10, 6, 33.00000000000000000, #157 ) ;
#157 = COORDINATED_UNIVERSAL_TIME_OFFSET ( 1, 0, .AHEAD. ) ;
#158 = PERSON_AND_ORGANIZATION ( #116, #151 ) ;
#159 = APPROVAL ( #160, 'UNSPECIFIED' ) ;
#160 = APPROVAL_STATUS ( 'not_yet_approved' ) ;
#161 = PERSON_AND_ORGANIZATION ( #116, #151 ) ;
#162 = PRODUCT_DEFINITION_FORMATION_WITH_SPECIFIED_SOURCE ( 'ANY', '', #115, .NOT_KNOWN. ) ;
#163 = CC_DESIGN_DATE_AND_TIME_ASSIGNMENT ( #154, #153, ( #120 ) ) ;
#164 = CC_DESIGN_PERSON_AND_ORGANIZATION_ASSIGNMENT ( #166, #165, ( #167 ) ) ;
#165 = PERSON_AND_ORGANIZATION_ROLE ( 'classification_officer' ) ;
#166 = PERSON_AND_ORGANIZATION ( #116, #151 ) ;
#167 = SECURITY_CLASSIFICATION ( '', '', #168 ) ;
#168 = SECURITY_CLASSIFICATION_LEVEL ( 'unclassified' ) ;
#169 = CC_DESIGN_DATE_AND_TIME_ASSIGNMENT ( #192, #170, ( #167 ) ) ;
#170 = DATE_TIME_ROLE ( 'classification_date' ) ;
#171 = CALENDAR_DATE ( 2009, 2, 12 ) ;
#172 = LOCAL_TIME ( 10, 6, 33.00000000000000000, #193 ) ;
#173 = EDGE_CURVE ( 'NONE', #174, #175, #10, .T. ) ;
#174 = VERTEX_POINT ( 'NONE', #8 ) ;
#175 = VERTEX_POINT ( 'NONE', #7 ) ;
#176 = MANIFOLD_SOLID_BREP ( 'NONE', #199 ) ;
#177 = EDGE_LOOP ( 'NONE', ( #219, #189, #200, #186 ) ) ;
#178 = EDGE_CURVE ( 'NONE', #232, #220, #2, .T. ) ;
#179 = ORIENTED_EDGE ( 'NONE', *, *, #187, .T. ) ;
#180 = ORIENTED_EDGE ( 'NONE', *, *, #210, .F. ) ;
#181 = ADVANCED_FACE ( 'NONE', ( #17, #16 ), #22, .F. ) ;
#182 = EDGE_LOOP ( 'NONE', ( #183, #184 ) ) ;
#183 = ORIENTED_EDGE ( 'NONE', *, *, #222, .F. ) ;
#184 = ORIENTED_EDGE ( 'NONE', *, *, #178, .F. ) ;
#185 = EDGE_LOOP ( 'NONE', ( #197, #198 ) ) ;
#186 = ORIENTED_EDGE ( 'NONE', *, *, #187, .F. ) ;
#187 = EDGE_CURVE ( 'NONE', #220, #203, #51, .T. ) ;
#188 = ADVANCED_FACE ( 'NONE', ( #68, #75 ), #43, .F. ) ;
#189 = ORIENTED_EDGE ( 'NONE', *, *, #201, .T. ) ;
#190 = EDGE_CURVE ( 'NONE', #203, #202, #73, .T. ) ;
#191 = EDGE_LOOP ( 'NONE', ( #224, #194, #215, #218 ) ) ;
#192 = DATE_AND_TIME ( #171, #172 ) ;
#193 = COORDINATED_UNIVERSAL_TIME_OFFSET ( 1, 0, .AHEAD. ) ;
#194 = ORIENTED_EDGE ( 'NONE', *, *, #195, .T. ) ;
#195 = EDGE_CURVE ( 'NONE', #174, #196, #46, .T. ) ;
#196 = VERTEX_POINT ( 'NONE', #41 ) ;
#197 = ORIENTED_EDGE ( 'NONE', *, *, #230, .T. ) ;
#198 = ORIENTED_EDGE ( 'NONE', *, *, #173, .T. ) ;
#199 = CLOSED_SHELL ( 'NONE', ( #221, #223, #226, #188, #211, #181 ) ) ;
#200 = ORIENTED_EDGE ( 'NONE', *, *, #190, .F. ) ;
#201 = EDGE_CURVE ( 'NONE', #232, #202, #32, .T. ) ;
#202 = VERTEX_POINT ( 'NONE', #33 ) ;
#203 = VERTEX_POINT ( 'NONE', #44 ) ;
#204 = EDGE_LOOP ( 'NONE', ( #205, #206 ) ) ;
#205 = ORIENTED_EDGE ( 'NONE', *, *, #234, .F. ) ;
#206 = ORIENTED_EDGE ( 'NONE', *, *, #216, .F. ) ;
#207 = EDGE_LOOP ( 'NONE', ( #208, #209 ) ) ;
#208 = ORIENTED_EDGE ( 'NONE', *, *, #190, .T. ) ;
#209 = ORIENTED_EDGE ( 'NONE', *, *, #210, .T. ) ;
#210 = EDGE_CURVE ( 'NONE', #202, #203, #66, .T. ) ;
#211 = ADVANCED_FACE ( 'NONE', ( #67 ), #24, .T. ) ;
#212 = EDGE_LOOP ( 'NONE', ( #213, #214, #179, #180 ) ) ;
#213 = ORIENTED_EDGE ( 'NONE', *, *, #201, .F. ) ;
#214 = ORIENTED_EDGE ( 'NONE', *, *, #178, .T. ) ;
#215 = ORIENTED_EDGE ( 'NONE', *, *, #216, .T. ) ;
#216 = EDGE_CURVE ( 'NONE', #196, #217, #26, .T. ) ;
#217 = VERTEX_POINT ( 'NONE', #35 ) ;
#218 = ORIENTED_EDGE ( 'NONE', *, *, #225, .F. ) ;
#219 = ORIENTED_EDGE ( 'NONE', *, *, #222, .T. ) ;
#220 = VERTEX_POINT ( 'NONE', #34 ) ;
#221 = ADVANCED_FACE ( 'NONE', ( #20 ), #48, .T. ) ;
#222 = EDGE_CURVE ( 'NONE', #220, #232, #59, .T. ) ;
#223 = ADVANCED_FACE ( 'NONE', ( #84 ), #90, .F. ) ;
#224 = ORIENTED_EDGE ( 'NONE', *, *, #173, .F. ) ;
#225 = EDGE_CURVE ( 'NONE', #175, #217, #108, .T. ) ;
#226 = ADVANCED_FACE ( 'NONE', ( #105 ), #104, .F. ) ;
#227 = EDGE_LOOP ( 'NONE', ( #228, #229, #231, #233 ) ) ;
#228 = ORIENTED_EDGE ( 'NONE', *, *, #195, .F. ) ;
#229 = ORIENTED_EDGE ( 'NONE', *, *, #230, .F. ) ;
#230 = EDGE_CURVE ( 'NONE', #175, #174, #96, .T. ) ;
#231 = ORIENTED_EDGE ( 'NONE', *, *, #225, .T. ) ;
#232 = VERTEX_POINT ( 'NONE', #77 ) ;
#233 = ORIENTED_EDGE ( 'NONE', *, *, #234, .T. ) ;
#234 = EDGE_CURVE ( 'NONE', #217, #196, #109, .T. ) ;
#235 = CC_DESIGN_APPROVAL ( #240, ( #167 ) ) ;
#236 = APPROVAL_DATE_TIME ( #237, #240 ) ;
#237 = DATE_AND_TIME ( #244, #245 ) ;
#238 = COORDINATED_UNIVERSAL_TIME_OFFSET ( 1, 0, .AHEAD. ) ;
#239 = APPROVAL_PERSON_ORGANIZATION ( #243, #240, #241 ) ;
#240 = APPROVAL ( #242, 'UNSPECIFIED' ) ;
#241 = APPROVAL_ROLE ( '' ) ;
#242 = APPROVAL_STATUS ( 'not_yet_approved' ) ;
#243 = PERSON_AND_ORGANIZATION ( #116, #151 ) ;
#244 = CALENDAR_DATE ( 2009, 2, 12 ) ;
#245 = LOCAL_TIME ( 10, 6, 33.00000000000000000, #238 ) ;
#246 = SHAPE_DEFINITION_REPRESENTATION ( #247, #88 ) ;
#247 = PRODUCT_DEFINITION_SHAPE ( 'NONE', 'NONE',  #120 ) ;
#248 = PRODUCT_RELATED_PRODUCT_CATEGORY ( 'detail', '', ( #115 ) ) ;
#249 = CC_DESIGN_SECURITY_CLASSIFICATION ( #167, ( #162 ) ) ;
ENDSEC;
END-ISO-10303-21;
