ISO-10303-21;
HEADER;
FILE_DESCRIPTION (( 'STEP AP203' ),
    '1' );
FILE_NAME ('A0200004.STEP',
    '2009-12-02T09:04:14',
    ( '' ),
    ( 'sopra-pneumatic' ),
    'SwSTEP 2.0',
    'SolidWorks 2009',
    '' );
FILE_SCHEMA (( 'CONFIG_CONTROL_DESIGN' ));
ENDSEC;

DATA;
#1 = VERTEX_POINT ( 'NONE', #70 ) ;
#2 = EDGE_LOOP ( 'NONE', ( #15, #66, #23, #33 ) ) ;
#3 = ORIENTED_EDGE ( 'NONE', *, *, #4, .F. ) ;
#4 = EDGE_CURVE ( 'NONE', #1, #5, #73, .T. ) ;
#5 = VERTEX_POINT ( 'NONE', #72 ) ;
#6 = ORIENTED_EDGE ( 'NONE', *, *, #7, .T. ) ;
#7 = EDGE_CURVE ( 'NONE', #10, #9, #80, .T. ) ;
#8 = EDGE_CURVE ( 'NONE', #9, #5, #77, .T. ) ;
#9 = VERTEX_POINT ( 'NONE', #92 ) ;
#10 = VERTEX_POINT ( 'NONE', #81 ) ;
#11 = ADVANCED_FACE ( 'NONE', ( #82 ), #91, .T. ) ;
#12 = ORIENTED_EDGE ( 'NONE', *, *, #8, .T. ) ;
#13 = EDGE_LOOP ( 'NONE', ( #6, #12, #3, #20 ) ) ;
#14 = EDGE_CURVE ( 'NONE', #17, #18, #88, .T. ) ;
#15 = ORIENTED_EDGE ( 'NONE', *, *, #14, .F. ) ;
#16 = MANIFOLD_SOLID_BREP ( 'NONE', #57 ) ;
#17 = VERTEX_POINT ( 'NONE', #101 ) ;
#18 = VERTEX_POINT ( 'NONE', #107 ) ;
#19 = ADVANCED_FACE ( 'NONE', ( #110 ), #102, .F. ) ;
#20 = ORIENTED_EDGE ( 'NONE', *, *, #21, .F. ) ;
#21 = EDGE_CURVE ( 'NONE', #10, #1, #99, .T. ) ;
#22 = ORIENTED_EDGE ( 'NONE', *, *, #31, .T. ) ;
#23 = ORIENTED_EDGE ( 'NONE', *, *, #29, .T. ) ;
#24 = VERTEX_POINT ( 'NONE', #100 ) ;
#25 = ORIENTED_EDGE ( 'NONE', *, *, #71, .F. ) ;
#26 = ORIENTED_EDGE ( 'NONE', *, *, #32, .F. ) ;
#27 = EDGE_LOOP ( 'NONE', ( #25, #26, #22, #34 ) ) ;
#28 = ADVANCED_FACE ( 'NONE', ( #95 ), #94, .F. ) ;
#29 = EDGE_CURVE ( 'NONE', #24, #30, #117, .T. ) ;
#30 = VERTEX_POINT ( 'NONE', #125 ) ;
#31 = EDGE_CURVE ( 'NONE', #18, #30, #124, .T. ) ;
#32 = EDGE_CURVE ( 'NONE', #18, #17, #63, .T. ) ;
#33 = ORIENTED_EDGE ( 'NONE', *, *, #31, .F. ) ;
#34 = ORIENTED_EDGE ( 'NONE', *, *, #53, .T. ) ;
#35 = EDGE_LOOP ( 'NONE', ( #58, #43, #39, #55 ) ) ;
#36 = ADVANCED_FACE ( 'NONE', ( #130 ), #129, .T. ) ;
#37 = ORIENTED_EDGE ( 'NONE', *, *, #29, .F. ) ;
#38 = ADVANCED_FACE ( 'NONE', ( #126, #142 ), #148, .F. ) ;
#39 = ORIENTED_EDGE ( 'NONE', *, *, #21, .T. ) ;
#40 = EDGE_LOOP ( 'NONE', ( #51, #37 ) ) ;
#41 = ORIENTED_EDGE ( 'NONE', *, *, #45, .T. ) ;
#42 = EDGE_LOOP ( 'NONE', ( #49, #47 ) ) ;
#43 = ORIENTED_EDGE ( 'NONE', *, *, #44, .T. ) ;
#44 = EDGE_CURVE ( 'NONE', #9, #10, #133, .T. ) ;
#45 = EDGE_CURVE ( 'NONE', #5, #1, #141, .T. ) ;
#46 = ORIENTED_EDGE ( 'NONE', *, *, #14, .T. ) ;
#47 = ORIENTED_EDGE ( 'NONE', *, *, #44, .F. ) ;
#48 = ORIENTED_EDGE ( 'NONE', *, *, #32, .T. ) ;
#49 = ORIENTED_EDGE ( 'NONE', *, *, #7, .F. ) ;
#50 = EDGE_LOOP ( 'NONE', ( #54, #41 ) ) ;
#51 = ORIENTED_EDGE ( 'NONE', *, *, #53, .F. ) ;
#52 = ADVANCED_FACE ( 'NONE', ( #154, #153 ), #155, .F. ) ;
#53 = EDGE_CURVE ( 'NONE', #30, #24, #160, .T. ) ;
#54 = ORIENTED_EDGE ( 'NONE', *, *, #4, .T. ) ;
#55 = ORIENTED_EDGE ( 'NONE', *, *, #45, .F. ) ;
#56 = EDGE_LOOP ( 'NONE', ( #48, #46 ) ) ;
#57 = CLOSED_SHELL ( 'NONE', ( #11, #19, #28, #38, #36, #52 ) ) ;
#58 = ORIENTED_EDGE ( 'NONE', *, *, #8, .F. ) ;
#59 = AXIS2_PLACEMENT_3D ( 'NONE', #119, #118, #120 ) ;
#60 = DIRECTION ( 'NONE',  ( -0.0000000000000000000, 1.000000000000000000, -0.0000000000000000000 ) ) ;
#61 = VECTOR ( 'NONE', #60, 1000.000000000000000 ) ;
#62 = CARTESIAN_POINT ( 'NONE',  ( 1.653218577660209300E-015, 4.062363853051271800, -13.50000000000000000 ) ) ;
#63 = CIRCLE ( 'NONE', #59, 10.75000000000000000 ) ;
#64 = ADVANCED_BREP_SHAPE_REPRESENTATION ( 'A0200004', ( #16, #198 ), #65 ) ;
#65 =( GEOMETRIC_REPRESENTATION_CONTEXT ( 3 ) GLOBAL_UNCERTAINTY_ASSIGNED_CONTEXT ( ( #166 ) ) GLOBAL_UNIT_ASSIGNED_CONTEXT ( ( #163, #165, #167 ) ) REPRESENTATION_CONTEXT ( 'NONE', 'WORKASPACE' ) );
#66 = ORIENTED_EDGE ( 'NONE', *, *, #71, .T. ) ;
#67 = AXIS2_PLACEMENT_3D ( 'NONE', #74, #69, #68 ) ;
#68 = DIRECTION ( 'NONE',  ( 0.0000000000000000000, 0.0000000000000000000, 1.000000000000000000 ) ) ;
#69 = DIRECTION ( 'NONE',  ( -0.0000000000000000000, 1.000000000000000000, -0.0000000000000000000 ) ) ;
#70 = CARTESIAN_POINT ( 'NONE',  ( 0.0000000000000000000, 1.500000000000000000, 13.50000000000000000 ) ) ;
#71 = EDGE_CURVE ( 'NONE', #17, #24, #164, .T. ) ;
#72 = CARTESIAN_POINT ( 'NONE',  ( 1.653218577660209300E-015, 1.500000000000000000, -13.50000000000000000 ) ) ;
#73 = CIRCLE ( 'NONE', #67, 13.50000000000000000 ) ;
#74 = CARTESIAN_POINT ( 'NONE',  ( 0.0000000000000000000, 1.500000000000000000, 0.0000000000000000000 ) ) ;
#75 = AXIS2_PLACEMENT_3D ( 'NONE', #78, #79, #76 ) ;
#76 = DIRECTION ( 'NONE',  ( 0.0000000000000000000, 0.0000000000000000000, 1.000000000000000000 ) ) ;
#77 = LINE ( 'NONE', #62, #61 ) ;
#78 = CARTESIAN_POINT ( 'NONE',  ( 0.0000000000000000000, 0.0000000000000000000, 0.0000000000000000000 ) ) ;
#79 = DIRECTION ( 'NONE',  ( -0.0000000000000000000, 1.000000000000000000, -0.0000000000000000000 ) ) ;
#80 = CIRCLE ( 'NONE', #75, 13.50000000000000000 ) ;
#81 = CARTESIAN_POINT ( 'NONE',  ( 0.0000000000000000000, 0.0000000000000000000, 13.50000000000000000 ) ) ;
#82 = FACE_OUTER_BOUND ( 'NONE', #13, .T. ) ;
#83 = DIRECTION ( 'NONE',  ( -0.0000000000000000000, 1.000000000000000000, -0.0000000000000000000 ) ) ;
#84 = CARTESIAN_POINT ( 'NONE',  ( 0.0000000000000000000, 4.062363853051271800, 0.0000000000000000000 ) ) ;
#85 = DIRECTION ( 'NONE',  ( 0.0000000000000000000, 0.0000000000000000000, 1.000000000000000000 ) ) ;
#86 = DIRECTION ( 'NONE',  ( -0.0000000000000000000, 1.000000000000000000, -0.0000000000000000000 ) ) ;
#87 = AXIS2_PLACEMENT_3D ( 'NONE', #89, #86, #85 ) ;
#88 = CIRCLE ( 'NONE', #87, 10.75000000000000000 ) ;
#89 = CARTESIAN_POINT ( 'NONE',  ( 0.0000000000000000000, 0.0000000000000000000, 0.0000000000000000000 ) ) ;
#90 = DIRECTION ( 'NONE',  ( 0.0000000000000000000, 0.0000000000000000000, 1.000000000000000000 ) ) ;
#91 = CYLINDRICAL_SURFACE ( 'NONE', #93, 13.50000000000000000 ) ;
#92 = CARTESIAN_POINT ( 'NONE',  ( 1.653218577660209300E-015, 0.0000000000000000000, -13.50000000000000000 ) ) ;
#93 = AXIS2_PLACEMENT_3D ( 'NONE', #84, #83, #90 ) ;
#94 = CYLINDRICAL_SURFACE ( 'NONE', #112, 10.75000000000000000 ) ;
#95 = FACE_OUTER_BOUND ( 'NONE', #27, .T. ) ;
#96 = DIRECTION ( 'NONE',  ( -0.0000000000000000000, 1.000000000000000000, -0.0000000000000000000 ) ) ;
#97 = VECTOR ( 'NONE', #96, 1000.000000000000000 ) ;
#98 = CARTESIAN_POINT ( 'NONE',  ( 0.0000000000000000000, 4.062363853051271800, 13.50000000000000000 ) ) ;
#99 = LINE ( 'NONE', #98, #97 ) ;
#100 = CARTESIAN_POINT ( 'NONE',  ( 1.316451830359055400E-015, 1.500000000000000000, -10.75000000000000000 ) ) ;
#101 = CARTESIAN_POINT ( 'NONE',  ( 1.316451830359055400E-015, 0.0000000000000000000, -10.75000000000000000 ) ) ;
#102 = CYLINDRICAL_SURFACE ( 'NONE', #105, 10.75000000000000000 ) ;
#103 = DIRECTION ( 'NONE',  ( -0.0000000000000000000, 1.000000000000000000, -0.0000000000000000000 ) ) ;
#104 = CARTESIAN_POINT ( 'NONE',  ( 0.0000000000000000000, 4.062363853051271800, 0.0000000000000000000 ) ) ;
#105 = AXIS2_PLACEMENT_3D ( 'NONE', #104, #103, #106 ) ;
#106 = DIRECTION ( 'NONE',  ( 0.0000000000000000000, 0.0000000000000000000, 1.000000000000000000 ) ) ;
#107 = CARTESIAN_POINT ( 'NONE',  ( 0.0000000000000000000, 0.0000000000000000000, 10.75000000000000000 ) ) ;
#108 = DIRECTION ( 'NONE',  ( 0.0000000000000000000, 0.0000000000000000000, 1.000000000000000000 ) ) ;
#109 = DIRECTION ( 'NONE',  ( -0.0000000000000000000, 1.000000000000000000, -0.0000000000000000000 ) ) ;
#110 = FACE_OUTER_BOUND ( 'NONE', #2, .T. ) ;
#111 = CARTESIAN_POINT ( 'NONE',  ( 0.0000000000000000000, 4.062363853051271800, 0.0000000000000000000 ) ) ;
#112 = AXIS2_PLACEMENT_3D ( 'NONE', #111, #109, #108 ) ;
#113 = DIRECTION ( 'NONE',  ( 0.0000000000000000000, 0.0000000000000000000, 1.000000000000000000 ) ) ;
#114 = DIRECTION ( 'NONE',  ( -0.0000000000000000000, 1.000000000000000000, -0.0000000000000000000 ) ) ;
#115 = CARTESIAN_POINT ( 'NONE',  ( 0.0000000000000000000, 1.500000000000000000, 0.0000000000000000000 ) ) ;
#116 = AXIS2_PLACEMENT_3D ( 'NONE', #115, #114, #113 ) ;
#117 = CIRCLE ( 'NONE', #116, 10.75000000000000000 ) ;
#118 = DIRECTION ( 'NONE',  ( -0.0000000000000000000, 1.000000000000000000, -0.0000000000000000000 ) ) ;
#119 = CARTESIAN_POINT ( 'NONE',  ( 0.0000000000000000000, 0.0000000000000000000, 0.0000000000000000000 ) ) ;
#120 = DIRECTION ( 'NONE',  ( 0.0000000000000000000, 0.0000000000000000000, 1.000000000000000000 ) ) ;
#121 = DIRECTION ( 'NONE',  ( -0.0000000000000000000, 1.000000000000000000, -0.0000000000000000000 ) ) ;
#122 = VECTOR ( 'NONE', #121, 1000.000000000000000 ) ;
#123 = CARTESIAN_POINT ( 'NONE',  ( 0.0000000000000000000, 4.062363853051271800, 10.75000000000000000 ) ) ;
#124 = LINE ( 'NONE', #123, #122 ) ;
#125 = CARTESIAN_POINT ( 'NONE',  ( 0.0000000000000000000, 1.500000000000000000, 10.75000000000000000 ) ) ;
#126 = FACE_BOUND ( 'NONE', #40, .T. ) ;
#127 = DIRECTION ( 'NONE',  ( 0.0000000000000000000, 0.0000000000000000000, 1.000000000000000000 ) ) ;
#128 = AXIS2_PLACEMENT_3D ( 'NONE', #144, #131, #127 ) ;
#129 = CYLINDRICAL_SURFACE ( 'NONE', #128, 13.50000000000000000 ) ;
#130 = FACE_OUTER_BOUND ( 'NONE', #35, .T. ) ;
#131 = DIRECTION ( 'NONE',  ( -0.0000000000000000000, 1.000000000000000000, -0.0000000000000000000 ) ) ;
#132 = AXIS2_PLACEMENT_3D ( 'NONE', #137, #136, #135 ) ;
#133 = CIRCLE ( 'NONE', #132, 13.50000000000000000 ) ;
#134 = CARTESIAN_POINT ( 'NONE',  ( 0.0000000000000000000, 1.500000000000000000, 0.0000000000000000000 ) ) ;
#135 = DIRECTION ( 'NONE',  ( 0.0000000000000000000, 0.0000000000000000000, 1.000000000000000000 ) ) ;
#136 = DIRECTION ( 'NONE',  ( -0.0000000000000000000, 1.000000000000000000, -0.0000000000000000000 ) ) ;
#137 = CARTESIAN_POINT ( 'NONE',  ( 0.0000000000000000000, 0.0000000000000000000, 0.0000000000000000000 ) ) ;
#138 = DIRECTION ( 'NONE',  ( 0.0000000000000000000, 0.0000000000000000000, 1.000000000000000000 ) ) ;
#139 = DIRECTION ( 'NONE',  ( -0.0000000000000000000, 1.000000000000000000, -0.0000000000000000000 ) ) ;
#140 = AXIS2_PLACEMENT_3D ( 'NONE', #134, #139, #138 ) ;
#141 = CIRCLE ( 'NONE', #140, 13.50000000000000000 ) ;
#142 = FACE_OUTER_BOUND ( 'NONE', #50, .T. ) ;
#143 = DIRECTION ( 'NONE',  ( 0.0000000000000000000, -0.0000000000000000000, -1.000000000000000000 ) ) ;
#144 = CARTESIAN_POINT ( 'NONE',  ( 0.0000000000000000000, 4.062363853051271800, 0.0000000000000000000 ) ) ;
#145 = DIRECTION ( 'NONE',  ( 0.0000000000000000000, -1.000000000000000000, 0.0000000000000000000 ) ) ;
#146 = CARTESIAN_POINT ( 'NONE',  ( 10.75000000000000000, 1.500000000000000000, 0.0000000000000000000 ) ) ;
#147 = AXIS2_PLACEMENT_3D ( 'NONE', #146, #145, #143 ) ;
#148 = PLANE ( 'NONE',  #147 ) ;
#149 = DIRECTION ( 'NONE',  ( 0.0000000000000000000, 0.0000000000000000000, 1.000000000000000000 ) ) ;
#150 = DIRECTION ( 'NONE',  ( -0.0000000000000000000, 1.000000000000000000, 0.0000000000000000000 ) ) ;
#151 = CARTESIAN_POINT ( 'NONE',  ( 10.75000000000000000, 0.0000000000000000000, 0.0000000000000000000 ) ) ;
#152 = AXIS2_PLACEMENT_3D ( 'NONE', #151, #150, #149 ) ;
#153 = FACE_BOUND ( 'NONE', #56, .T. ) ;
#154 = FACE_OUTER_BOUND ( 'NONE', #42, .T. ) ;
#155 = PLANE ( 'NONE',  #152 ) ;
#156 = DIRECTION ( 'NONE',  ( 0.0000000000000000000, 0.0000000000000000000, 1.000000000000000000 ) ) ;
#157 = DIRECTION ( 'NONE',  ( -0.0000000000000000000, 1.000000000000000000, -0.0000000000000000000 ) ) ;
#158 = CARTESIAN_POINT ( 'NONE',  ( 0.0000000000000000000, 1.500000000000000000, 0.0000000000000000000 ) ) ;
#159 = AXIS2_PLACEMENT_3D ( 'NONE', #158, #157, #156 ) ;
#160 = CIRCLE ( 'NONE', #159, 10.75000000000000000 ) ;
#161 = DIRECTION ( 'NONE',  ( -0.0000000000000000000, 1.000000000000000000, -0.0000000000000000000 ) ) ;
#162 = CARTESIAN_POINT ( 'NONE',  ( 1.316451830359055400E-015, 4.062363853051271800, -10.75000000000000000 ) ) ;
#163 =( LENGTH_UNIT ( ) NAMED_UNIT ( * ) SI_UNIT ( .MILLI., .METRE. ) );
#164 = LINE ( 'NONE', #162, #168 ) ;
#165 =( NAMED_UNIT ( * ) PLANE_ANGLE_UNIT ( ) SI_UNIT ( $, .RADIAN. ) );
#166 = UNCERTAINTY_MEASURE_WITH_UNIT (LENGTH_MEASURE( 1.000000000000000100E-005 ), #163, 'distance_accuracy_value', 'NONE');
#167 =( NAMED_UNIT ( * ) SI_UNIT ( $, .STERADIAN. ) SOLID_ANGLE_UNIT ( ) );
#168 = VECTOR ( 'NONE', #161, 1000.000000000000000 ) ;
#169 = PRODUCT_DEFINITION_SHAPE ( 'NONE', 'NONE',  #243 ) ;
#170 = PRODUCT_RELATED_PRODUCT_CATEGORY ( 'detail', '', ( #226 ) ) ;
#171 = CC_DESIGN_SECURITY_CLASSIFICATION ( #192, ( #218 ) ) ;
#172 = CC_DESIGN_APPROVAL ( #180, ( #192 ) ) ;
#173 = APPROVAL_DATE_TIME ( #174, #180 ) ;
#174 = DATE_AND_TIME ( #175, #176 ) ;
#175 = CALENDAR_DATE ( 2009, 2, 12 ) ;
#176 = LOCAL_TIME ( 10, 4, 14.00000000000000000, #177 ) ;
#177 = COORDINATED_UNIVERSAL_TIME_OFFSET ( 1, 0, .AHEAD. ) ;
#178 = APPROVAL_PERSON_ORGANIZATION ( #182, #180, #179 ) ;
#179 = APPROVAL_ROLE ( '' ) ;
#180 = APPROVAL ( #181, 'UNSPECIFIED' ) ;
#181 = APPROVAL_STATUS ( 'not_yet_approved' ) ;
#182 = PERSON_AND_ORGANIZATION ( #197, #201 ) ;
#183 = CC_DESIGN_DATE_AND_TIME_ASSIGNMENT ( #185, #184, ( #192 ) ) ;
#184 = DATE_TIME_ROLE ( 'classification_date' ) ;
#185 = DATE_AND_TIME ( #186, #187 ) ;
#186 = CALENDAR_DATE ( 2009, 2, 12 ) ;
#187 = LOCAL_TIME ( 10, 4, 14.00000000000000000, #188 ) ;
#188 = COORDINATED_UNIVERSAL_TIME_OFFSET ( 1, 0, .AHEAD. ) ;
#189 = CC_DESIGN_PERSON_AND_ORGANIZATION_ASSIGNMENT ( #191, #190, ( #192 ) ) ;
#190 = PERSON_AND_ORGANIZATION_ROLE ( 'classification_officer' ) ;
#191 = PERSON_AND_ORGANIZATION ( #197, #201 ) ;
#192 = SECURITY_CLASSIFICATION ( '', '', #193 ) ;
#193 = SECURITY_CLASSIFICATION_LEVEL ( 'unclassified' ) ;
#194 = CC_DESIGN_PERSON_AND_ORGANIZATION_ASSIGNMENT ( #203, #202, ( #218 ) ) ;
#195 = APPLICATION_CONTEXT ( 'configuration controlled 3d designs of mechanical parts and assemblies' ) ;
#196 = DIRECTION ( 'NONE',  ( 1.000000000000000000, 0.0000000000000000000, 0.0000000000000000000 ) ) ;
#197 = PERSON ( 'UNSPECIFIED', 'UNSPECIFIED', 'UNSPECIFIED', ('UNSPECIFIED'), ('UNSPECIFIED'), ('UNSPECIFIED') ) ;
#198 = AXIS2_PLACEMENT_3D ( 'NONE', #249, #248, #196 ) ;
#199 = SHAPE_DEFINITION_REPRESENTATION ( #169, #64 ) ;
#200 = PERSON_AND_ORGANIZATION_ROLE ( 'design_owner' ) ;
#201 = ORGANIZATION ( 'UNSPECIFIED', 'UNSPECIFIED', '' ) ;
#202 = PERSON_AND_ORGANIZATION_ROLE ( 'design_supplier' ) ;
#203 = PERSON_AND_ORGANIZATION ( #197, #201 ) ;
#204 = CC_DESIGN_PERSON_AND_ORGANIZATION_ASSIGNMENT ( #206, #205, ( #218 ) ) ;
#205 = PERSON_AND_ORGANIZATION_ROLE ( 'creator' ) ;
#206 = PERSON_AND_ORGANIZATION ( #197, #201 ) ;
#207 = CC_DESIGN_APPROVAL ( #215, ( #218 ) ) ;
#208 = APPROVAL_DATE_TIME ( #209, #215 ) ;
#209 = DATE_AND_TIME ( #210, #211 ) ;
#210 = CALENDAR_DATE ( 2009, 2, 12 ) ;
#211 = LOCAL_TIME ( 10, 4, 14.00000000000000000, #212 ) ;
#212 = COORDINATED_UNIVERSAL_TIME_OFFSET ( 1, 0, .AHEAD. ) ;
#213 = APPROVAL_PERSON_ORGANIZATION ( #217, #215, #214 ) ;
#214 = APPROVAL_ROLE ( '' ) ;
#215 = APPROVAL ( #216, 'UNSPECIFIED' ) ;
#216 = APPROVAL_STATUS ( 'not_yet_approved' ) ;
#217 = PERSON_AND_ORGANIZATION ( #197, #201 ) ;
#218 = PRODUCT_DEFINITION_FORMATION_WITH_SPECIFIED_SOURCE ( 'ANY', '', #226, .NOT_KNOWN. ) ;
#219 = CC_DESIGN_DATE_AND_TIME_ASSIGNMENT ( #221, #220, ( #243 ) ) ;
#220 = DATE_TIME_ROLE ( 'creation_date' ) ;
#221 = DATE_AND_TIME ( #222, #223 ) ;
#222 = CALENDAR_DATE ( 2009, 2, 12 ) ;
#223 = LOCAL_TIME ( 10, 4, 14.00000000000000000, #224 ) ;
#224 = COORDINATED_UNIVERSAL_TIME_OFFSET ( 1, 0, .AHEAD. ) ;
#225 = CC_DESIGN_PERSON_AND_ORGANIZATION_ASSIGNMENT ( #230, #229, ( #243 ) ) ;
#226 = PRODUCT ( 'A0200004', 'A0200004', '', ( #227 ) ) ;
#227 = MECHANICAL_CONTEXT ( 'NONE', #195, 'mechanical' ) ;
#228 = APPLICATION_PROTOCOL_DEFINITION ( 'international standard', 'config_control_design', 1994, #195 ) ;
#229 = PERSON_AND_ORGANIZATION_ROLE ( 'creator' ) ;
#230 = PERSON_AND_ORGANIZATION ( #197, #201 ) ;
#231 = CC_DESIGN_APPROVAL ( #238, ( #243 ) ) ;
#232 = APPROVAL_DATE_TIME ( #233, #238 ) ;
#233 = DATE_AND_TIME ( #234, #235 ) ;
#234 = CALENDAR_DATE ( 2009, 2, 12 ) ;
#235 = LOCAL_TIME ( 10, 4, 14.00000000000000000, #236 ) ;
#236 = COORDINATED_UNIVERSAL_TIME_OFFSET ( 1, 0, .AHEAD. ) ;
#237 = APPROVAL_PERSON_ORGANIZATION ( #242, #238, #240 ) ;
#238 = APPROVAL ( #241, 'UNSPECIFIED' ) ;
#239 = PERSON_AND_ORGANIZATION ( #197, #201 ) ;
#240 = APPROVAL_ROLE ( '' ) ;
#241 = APPROVAL_STATUS ( 'not_yet_approved' ) ;
#242 = PERSON_AND_ORGANIZATION ( #197, #201 ) ;
#243 = PRODUCT_DEFINITION ( 'UNKNOWN', '', #218, #244 ) ;
#244 = DESIGN_CONTEXT ( 'detailed design', #246, 'design' ) ;
#245 = APPLICATION_PROTOCOL_DEFINITION ( 'international standard', 'config_control_design', 1994, #246 ) ;
#246 = APPLICATION_CONTEXT ( 'configuration controlled 3d designs of mechanical parts and assemblies' ) ;
#247 = CC_DESIGN_PERSON_AND_ORGANIZATION_ASSIGNMENT ( #239, #200, ( #226 ) ) ;
#248 = DIRECTION ( 'NONE',  ( 0.0000000000000000000, 0.0000000000000000000, 1.000000000000000000 ) ) ;
#249 = CARTESIAN_POINT ( 'NONE',  ( 0.0000000000000000000, 0.0000000000000000000, 0.0000000000000000000 ) ) ;
ENDSEC;
END-ISO-10303-21;
